Song name
# A B C D E F G H I J K L M N O P Q R S T U V W X Y Z

Brides Of Destruction - Life tab

------2--------2--------2--------2-----|
----3---3----3---3----3---3----3---3---|
---------------------------------------|
---------------------------------------|x2
-2-------------------------------------|
-----------2--------3-------3----------|

--------2-----------2------------2---------2------|
------3---3-------3---3--------3---3-----3---3----|
--------------------------------------------------|
--------------------------------------------------|(distortion)
-2-2----------------------------------------------|
-------------2-2----------3-3---------3-3---------|

------------------------------------------------------------|
------------------------------------------------------------|
------------------------------------------------------------|
-4-4-4-4-4-4-4-4--------------------------------------------|
-2-2-2-2-2-2-2-2-4-4-4-4-4-4-4-4--5-5-5-5-5-5-5-5-----------|
-----------------2-2-2-2-2-2-2-2--3-3-3-3-3-3-3-3-----------|

--------2-----------2------------2---------2------|
------3---3-------3---3--------3---3-----3---3----|
--------------------------------------------------|
--------------------------------------------------|(distortion)
-2-2----------------------------------------------|
-------------2-2----------3-3---------3-3---------|

thats all i could figure out and im sure its 100% right
Tap to rate this tab
 
# A B C D E F G H I J K L M N O P Q R S T U V W X Y Z