Song name
# A B C D E F G H I J K L M N O P Q R S T U V W X Y Z

Bright Eyes - True Blue chords

Highlighted       Show chord diagrams
C-032010
G-320033
Fmaj7-003210

/=Slide

Intro
                                                         C
E||-0-1-1/7/3-0---0-1-0-1-3-0|-0-1-0-1-3-0---7----------------------|
B||--------------------------|---------------------------1----------|
G||--------------------------|--------------------------------------|
D||--------------------------|-------------------3/7/3---2----------|
A||--------------------------|---------------------------3----------|
E||--------------------------|--------------------------------------|
                                        

C                        G
I am a blue blood I will admit that. 
Fmaj7                    C
I dance in blue shoes and wear a blue hat. 
C                        G
Live in a blue house, on a blue street, 
Fmaj7                    C
in a blue town by a blue creek. 
C                        G
I write my blue songs with my blue pen.
Fmaj7                    C
I sing the blue notes to my blue friends.
C                        G
Now I don't know that much about you, 
Fmaj7                    C
but I like you because youre true blue.


E||---------3-0-----------3-0|-0-1-0-1-3----------------------------|
B||--------------------------|--------------------------------------|
G||-4-5-4-5-------4-5-4-5----|--------------------------------------|
D||--------------------------|--------------------------------------|
A||--------------------------|--------------------------------------|
E||--------------------------|--------------------------------------|

C                        G
I had a blue dream about a blue star. 
Fmaj7                    C
In it I drove there in my blue car. 
C                        G
And when I got there, I met a blue dog 
Fmaj7                    C
with a blue tongue, we had some real fun. 
C                        G
We bounced a blue ball. It broke a blue glass. 
Fmaj7                    C
We banged on blue drums and called it bluegrass. 
C                        G
Guess the thing Im trying to tell you, 
Fmaj7                    C
is that its best kid if you're true blue.

C                        G
Once I had gangrene, I got it real bad. 
Fmaj7                    C
And so the Doc came with his black bag. 
C                        G
I said "You know doc, I dont feel swell. 
Fmaj7                    C
If you had a blue bag I think Id feel well."
C                        G
So he came right back with a blue sack. 
Fmaj7                    C
He said, "Will this do?" I said, "Why not? Yeah." 
C                        G
Thats how I am here today to tell you,
Fmaj7                    C
that itís best man to be true blue.


C                        G
Out on the blue sea I sailed a blue ship.
Fmaj7                    C
I had a first mate, always had blue lips. 
C                        G
His name was Bluebeard, he had a weird twitch. 
Fmaj7                    C
We flew a blue flag on a big stick. 
C                        G
And we ate bluegill and we ate blue chips. 
Fmaj7                    C
Oh, I felt real blue eating that blue fish. 
C                        G
Because there aint much that I won't do,
Fmaj7                    C
unless it keeps me from being true blue.


C                        G
Once in a blue moon theres a blue sky. 
Fmaj7                    C
I wear my blue jeans and fly my blue kite. 
C                        G
Hangs like a bluebird until the wind dies 
Fmaj7                    C
and then the tears pour out of my blue eyes. 
C                        G
If its your birthday, we'll bake a blue cake 
Fmaj7                    C
and then we'll eat it off these blue plates. 
C                        G
cause kid I don't know much about you,
Fmaj7                    C
but I like you because you're true blue. 
C                        G
Yeah, I don't know much about you, 
Fmaj7                    C
but I like you cause you're true blue.≠
Tap to rate this tab
# A B C D E F G H I J K L M N O P Q R S T U V W X Y Z