Song name
# A B C D E F G H I J K L M N O P Q R S T U V W X Y Z

Brighten - Ill Be There tab

Artist: Brighten
Song: I'll Be There
Album: Peace & Quiet
Email: Shempashland@yahoo.com

Standard Tuning
Capo on 6th Fret
*I play this with the Capo of the 5th Fret when I cover it.
 Because my vocal range is different than Justin's.*

I advise playing along with the song to get a good feel of the strum pattern.

The whole song is basically these chords:
e|--0--0--0--------|
B|--0--0--0--------|
G|--4--4--4--------|
D|--2--2--2--------|
A|--4--x--0--------|
E|-----4-----------|

Pre Chorus
e|--00--00--00----|
B|--00--00--00----|
G|--44--44--44----|
D|--44--22--22----|
A|--22--44--00----|
E|----------------|
"oooh I know"
The Falsetto part
Tap to rate this tab
# A B C D E F G H I J K L M N O P Q R S T U V W X Y Z