Song name
# A B C D E F G H I J K L M N O P Q R S T U V W X Y Z

Bring Me The Horizon - Medusa tab

----------------------------------------------------------------------------
			     Medusa - Bring Me The Horizon
----------------------------------------------------------------------------
Tabbed by: Chris S.
Email: Shmitty2345@aim.com

Tuning: B F# B E G# C#

|-------------------------------------------------------------------------|
|-------------------------------------------------------------------------|
|-------------------------------------------------------------------------|
|---------7---------------------3p1---------7-----------------------------|
|-000-000---10-8-7--000-3h5-000-----000-000--10-8-7-000----5h7----7h10----|
|-000-000-----------000-----000-----000-000---------000-5h7---8h10--------|
  xxx xxx           xxx     xxx     xxx xxx         xxx          (6 Times)


------------------------------------------------------------------|
------------------------------------------------------------------|
-----------------------------------------------7-8-------10-11----|
---------------------------------------------8--------11----------|
--0-0-6-3-5----------------------6-3-5-----9-------11-------------|
--0-0-------0-0-00-0-0-00-0-0-00-------0-0------------------------|
  x x       x x xx x x xx x x xx       x x


------------------------------------------------------------------------------15-|
---------------------------------------------------------------------------15----|
------------------------------------------------------------------------15-------|
-----------------------------17-16--------------17-16-------------14-17----------|
--0-0--0-0-18-15-17-0-0--0-0-------18--0-0--0-0-------18-15-13-16----------------|
--0-0--0-0----------0-0--0-0-----------0-0--0-0----------------------------------|

------------------------------------------------------------------------|
------------------------------------------------------------------------|
-----------7/6----------------------------7/6-------<12*>-------<12*>---|
-----------x/x----------------------------x/x---------------------------|
--0-0--0-0-5/4-------5h6-----3h5-0-0--0-0-5/4-44-33-------44-22---------|
--0-0--0-0-----0-0-0-----0-0-----0-0--0-0-----44-33-------44-22---------|
  x x  x x     x x x     x x     x x  x x     xx xx       xx xx


----------------------------------------------|
--------------------6h8-----5h6---------------|
----------7/6----------------------------7/6--|
----------x/x----------------------------x/x--|
-0-0--0-0-5/4-------------------0-0--0-0-5/4--|
-0-0--0-0-----0-0-0-----0-0-----0-0--0-0------|
 x x  x x     x x x     x x     x x  x x


---------------------------------------------------------------------------------------------------|
---------------------------------------------------------------------------------------------------|
-------<12*>-------<12*>-------<14*>-------<14*>-------<13*>-------<13*>-------<13*>-------<13*>---|
---------------------------------------------------------------------------------------------------|
-44-33-------44-22-------44-33-------44-22-------33-22-------22-11-------33-22-------22-11---------|
-44-33-------44-22-------44-33-------44-22-------33-22-------22-11-------33-22-------22-11---------|


----------------|
----------------|
----------------|
-0-4-3-1-0-0-0--|
-0-4-3-1-0-0-0--|
-0-4-3-1-0-0-0--|
 x x x x x x x

-------------------------------------------------------------------------------------------------|
-------------------------------------------------------------------------------------------------|
--------------<12*>-----------------------------------------------<12*>---------------------|-\--|
-0-4-3-1-0-0-0-----1-1--0-4-3-1-0-0-0--0-0-0--0-0-0--0-4-3-1-0-0-0-----1-1--0-4-3-1-0-0-0--------|  \
-0-4-3-1-0-0-0-----1-1--0-4-3-1-0-0-0--0-0-0--0-0-0--0-4-3-1-0-0-0-----1-1--0-4-3-1-0-0-0--------|   \
-0-4-3-1-0-0-0-----1-1--0-4-3-1-0-0-0--0-0-0--0-0-0--0-4-3-1-0-0-0-----1-1--0-4-3-1-0-0-0--------|    \

                     -|
----------------------|
-6h9p--5h8p---|
----------------------|
----------------------|
----------------------|


----------------------------------|
----------------------------------|
-------------------------3---2-2--|
-0-4-3-1-0-1-3-0-1-4-3-1-x---x-x--|
-0-4-3-1-0-1-3-0-1-4-3-1-1---0-0--|
-0-4-3-1-0-1-3-0-1-4-3-1---0------|
 x x x x x x x x x x x x   x


---------------------------|
---------------------------|
---------------------------|
-0-4-3-1-0-1-3-0-1-4-3-4\--|
-0-4-3-1-0-1-3-0-1-4-3-4\--|
-0-4-3-1-0-1-3-0-1-4-3-4\--|
 x x x x x x x x x x x


---------------------------------------------------------------------------|
---------------------------------------------------------------------------|
----------------------------------------------------------"3-"2----|
---------------------------------------------------------------------------|
---------------------------------------------------------------------------|
-"1-"4-"3-"0-"1-"3-"1-"4-"3------------|


---------------------------------------------------------------------|
---------------------------------------------------------------------|
---------------------------------------------------------------<12*>-|
---------------------------------------------------------------------|
---------------------------------------------------------------------|
-"1-"4-"3-"0-"1-"3-"1-"4-"3------|

--------------------------------------------------------------------------------------------|
--------------------------------------------------------------------------------------------|
--------------<12*>-----------------------------------------------<12*>---------------------|
-0-4-3-1-0-0-0-----1-1--0-4-3-1-0-0-0--0-0-0--0-0-0--0-4-3-1-0-0-0-----1-1--0-4-3-1-0-0-0---|
-0-4-3-1-0-0-0-----1-1--0-4-3-1-0-0-0--0-0-0--0-0-0--0-4-3-1-0-0-0-----1-1--0-4-3-1-0-0-0---|
-0-4-3-1-0-0-0-----1-1--0-4-3-1-0-0-0--0-0-0--0-0-0--0-4-3-1-0-0-0-----1-1--0-4-3-1-0-0-0---|


----------------------|
----------------------|
-6h9p--5h8p---|
----------------------|
----------------------|
----------------------|

-----17-13-------17-13-------17-13--------|
-----------15----------15----------15-----|
--------------14----------14----------14--|
-0~---------------------------------------|
-0~---------------------------------------|
-0~---------------------------------------|


-----------------------------------|
-----------------------------------|
----------5------------------------|
------------8-7-5-------------7p5--|
-0-0--0-0---------0-0-7h8-0-0------|
-0-0--0-0---------0-0-----0-0------|
 x x  x x         x x     x x


-------------------------------------|
-------------------------------------|
----------5--------------------------|
------------8-7-5--------------------|
-0-0--0-0-------------5-7------8-10--|
-0-0--0-0---------5-7-----7-10-------|
 x x  x x


-----------------------------------|
-----------------------------------|
----------5------------------------|
------------8-7-5-------------7p5--|
-0-0--0-0---------0-0-7h8-0-0------|
-0-0--0-0---------0-0-----0-0------|
 x x  x x         x x     x x


-----------------------------------|
-----------------------------------|
----------5------------------------|
------------8-7-5-------7-----7-8--|
-0-0--0-0---------5-7-8---7-8------|
-0-0--0-0--------------------------|
 x x  x x

-------------------------------------------------------------|
-------------"10-"8----------------------------------|
-------------------------------------------------------------|
--------------------------------------------7h8p7------------|
------------------------------------------5-----------5-7-8--|
-00-66-77-55----------------00-66-77-55-0---------0-0--------|
 xx xx xx xx                xx xx xx xx x         x x

 Solo:

-------------------------------------------------|
-----15-17-16b-17-15----------17-------20--------|
---------------------17-17-19----19-17----17-----|
---------------------------------------------17--|
-------------------------------------------------|
-\12---------------------------------------------|

---------------------------------------------------------------------------|
-18-16-15-16-15----15------------------------------------------------------|
----------------17----17-15-17-15-14h15p14-17-15-14-15-14----14------------|
----------------------------------------------------------17----17-15-17-15|
---------------------------------------------------------------------------|
---------------------------------------------------------------------------|

---------------------------------------------------------------------------|
---------------------------------------------------------------------------|
---------------------------------------------------------------------------|
-14h15p14-17-15-14-15-14----14---------------------------------------------|
-------------------------17----17-15-17-15-14h15p14-15-14-12-14-12----12---|
---------------------------------------------17----17-15-17-15-14h15p14-12~|

-17p13p10-18p13p10-17p13p10-17p12p9-18p12p9-17p12p9|
---------------------------------------------------------------------------|
---------------------------------------------------------------------------|
---------------------------------------------------------------------------|
---------------------------------------------------------------------------|
---------------------------------------------------------------------------|

-------------------------------17-15----15---------|
-15-15-17-18-20-18h20p18-17----------18----18-17\--|
----------------------------18---------------------|
---------------------------------------------------|
---------------------------------------------------|
---------------------------------------------------|

----------17----------------18----------------20-18-17--18-17---17--------|
-15-17-18----18-17-15-17-18----18-17-15-17-18---------20----20-18-17-18-15|
--------------------------------------------------------------------------|
--------------------------------------------------------------------------|
--------------------------------------------------------------------------|
--------------------------------------------------------------------------|

----------------------|
----------------------|
----------------------|
----------------------|
-00-00-0000000000-----|
-00-00-0000000000-----|
 xx xx xxxxxxxxxx 8 times


-----17-13--------------------------------------12-|
-----------15--------------------------------15----|
--------------14--------------12-14----12-14-------|
------------------------12-15-------15-------------|
-0-0-------------0-0-12----------------------------|
-0-0-------------0-0-------------------------------|
 x x             x x

-----17-13-----------------------------------------17-------|
-----------15-----------------------18----------18----18----|
--------------14-----------------19----19----19----------19-|
------------------------------19----------19----------------|
-0-0-------------0-0----17-20-------------------------------|
-0-0-------------0-0-19-------------------------------------|
 x x             x x                        2 times


----------------------------------|
----------------------------------|
----------------------------7\10~-|
-0~----------1-3-4-0-1-3-0~-x\x---|
-0~-00-00-00-1-3-4-0-1-3-0~-5\8~--|
-0~-00-00-00-1-3-4-0-1-3-0~-------|
    xx xx xx x x x x x x


--------------------------------------------------|
--------------------------------------------------|
--------------------------------------------------|
--------------------------------------------------|
-----5-----7-----8-----7-----7-----5-----8-----4--|
-000---000---000---000---777---777---444---444----|
 xxx   xxx   xxx   xxx   xxx   xxx   xxx   xxx


----------------------------------------------------|
----------------------------------------------------|
----------------------------------------------------|
----------------------------------------------------|
-----8-----7-----12-----10-----7-----5-----8-----4--|
-000---000---000----000----777---777---444---444----|
 xxx   xxx   xxx    xxx    xxx   xxx   xxx   xxx

 4:23 - 4:36
----------------|
----------------|
----------------|
-0-0-0-0--------|
-0-0-0-0--------|
-0-0-0-0--------|
        16 times


---------------------------------------------------------------------------|
---------------------------------------------------------------------------|
----------------------------------------------------------------------<10*>|
----------------------------------------------------------------------<11*>|
---------------------------------------------------------------------------|
0-1-0-3-0-1-4-3-0-132-0|


-----------------------------------------------------------------|
-----------------------------------------------------------------|
------------------------------------------------------11*--------|
--------12*------------------------------------------------12*---|
-----------------------------------------------------------------|
-0-1-0-------0-1-4-3--0--1--3--2-0---------------|
 x x x       x x x x


-----------------------------------------------------------------------|
-----------------------------------------------------------------------|
-----------------------------------------------------------------------|
-------<12*>-----------------------------------------------------------|
-----------------------------------------------------------------------|
-0-1-0-------0-1-4-3--0--1--3--2--0--3--2--|
 x x x       x x x x  x

---------------------------------------------------------------------------|
---------------------------------------------------------------------------|
---------------------------------------------------------11*-----11*-------|
--------12*----------------------------------------------------12*-----12*-|
---------------------------------------------------------------------------|
-0-1-0-------0-1-4-3-"0-"1-"3-"2-0-------------------------|
 x x x       x x x x                             x


|--------------------------------------------------------------------------|
|-----------------------------------------12*------------------------------|
|----------------------------------------------------------6h9p-5h8p-------|
|-000-111-444-333--------"10-"13---000-111-444-333-----------------|
  xxx xxx xxx xxx                          xxx xxx xxx xxx


|------------------------------------|
|------------------------------------|
|------------------------------------|
|----------7-------------------------|
|-000--000---10-8-7-0-0-0-0-0-0--0---|
|-000--000----------0-0-0-0-0-0--0---|
 xxx  xxx          x x x x x x  x


| /  slide up
| \  slide down
| h  hammer-on
| p  pull-off
| ~  vibrato
| +  harmonic
| x  Mute note
===============================================================================
Tap to rate this tab
# A B C D E F G H I J K L M N O P Q R S T U V W X Y Z