Bring Me The Horizon - Crucify Me tab

BMTH - Crucify me
by Janis/Team Radke

Intro:

D--------------------------5h6p5-----|
A------6-------6-------6---------6---|
F--5h7---7---7---7---7---7-----------|
C------------------------------------|
G------------------------------------|
C------------------------------------|

D--------------------------8-6-5-----|
A------6-------6-------6---------6---|
F--5h7---7---7---7---7---7-----------|
C------------------------------------|
G------------------------------------|
C------------------------------------|

D------------------------------------|
A------6-------6---------------------|
F---------------------7--7-----------|
C--7s8---8---8---8--5----------------|
G------------------------------------|
C------------------------------------|x2
Tap to rate this tab
 
# A B C D E F G H I J K L M N O P Q R S T U V W X Y Z