Bring Me The Horizon - It Never Ends tab

Artist: Bring Me The Horizon
Song: It Never Ends
Album: There Is A Hell, Belive Me, I've Seen It, There Is A Heaven, Let's Keep It A Secret
tabbed by: necriononguitar
e-mail: tim.rathgen@gmx.de (NO SPAM!)

REAL FANS SUPPORT BANDS BY PURCHASING THEIR CDS!!!!


Tuning: Drop C

. =palm-muted
~ =hold note
^ =vibrato
b =bend
r =release
p =pull off
h =hammer on


So this is a new song... and the other tab is kinda misleading... so this is my "tab" to
song... i bet as soon as this song is over mtv and shit, someone will make a better
but for now, this is enough... Enjoy

Oh and sometimes i wont name Guitar 1 and 2 because of one little difference...
i just write above the tab "L or R" (left or right speaker)


UPDATE 01/09/2010     thanks to xdays_ive_diedx
Some minor changes, few parts added.

UPDATE 06/09/2010     thanks again to xdays_ive_diedx
The 3rd/2nd guitar is kinda unnecessary, so now xdays_ive_diedx figured out smthn better ;D

MORE UPDATES COMING SOON!

"""Intro I"""
Guitar 1
E---------------------------------------------------------------|
B---------------------------------------------------------------|
G---------------------------------------------------------------|
D---------------------------------------------------------------|
A---10-10-10-10-10-10-10-10--10-10-10-10-10-10-10-10------------|
E---10-10-10-10-10-10-10-10--10-10-10-10-10-10-10-10------------|

"""Intro II"""        0:02
Guitar 1     (u cant really here it, but I 100% sure its there!)
E----------------------------------------------------------------------------|
B----------------------------------------------------------------------------|
G----------------------------------------------------------------------------|
D--(12-12-12-12-12-12-12-12)(12-12-12-12-12-12-12-12)----12-12-12-12-12-12---|
A---12-12-12-12-12-12-12-12--12-12-12-12-12-12-12-12-----12-12-12-12-12-12---|
E---12-12-12-12-12-12-12-12--12-12-12-12-12-12-12-12-----12-12-12-12-12-12---|

E---------------------------------------------------------------------|
B---------------------------------------------------------------------|
G---------------------------------------------------------------------|
D--(10-10-10-10-10-10-10-10)--(8-8-8-8---8-8-8--8-8-8---8-8-8-8)------|
A---10-10-10-10-10-10-10-10----8-8-8-8---8-8-8--8-8-8---8-8-8-8-------|
E---10-10-10-10-10-10-10-10----8-8-8-8---8-8-8--8-8-8---8-8-8-8-------|

E------------------------------------------------------|
B------------------------------------------------------|
G------------------------------------------------------|
D--(8-8-8-8-8-8-8)--10~--10~--10-10-10-----------------|
A---8-8-8-8-8-8-8---10~--10~--10-10-10-----------------|
E---8-8-8-8-8-8-8---10~--10~--10-10-10-----------------|


E----------------------------------------------------------------------------|
B----------------------------------------------------------------------------|
G----------------------------------------------------------------------------|
D--(12-12-12-12-12-12-12-12)(12-12-12-12-12-12-12-12)----12-12-12-12-12-12---|
A---12-12-12-12-12-12-12-12--12-12-12-12-12-12-12-12-----12-12-12-12-12-12---|
E---12-12-12-12-12-12-12-12--12-12-12-12-12-12-12-12-----12-12-12-12-12-12---|

E-------------------------------------------------------------|
B-------------------------------------------------------------|
G-------------------------------------------------------------|
D--(10~--10~--10~)----(8-8-8-8---8-8-8--8-8-8---8-8-8-8)------|
A---10~--10~--10~------8-8-8-8---8-8-8--8-8-8---8-8-8-8-------|
E---10~--10~--10~------8-8-8-8---8-8-8--8-8-8---8-8-8-8-------|

E-------------------------------------------------|
B-------------------------------------------------|
G-------------------------------------------------|
D--(8-8-8-8-8-8-8)--10--10--10-10-10--------------|
A---8-8-8-8-8-8-8---10--10--10-10-10--------------|
E---8-8-8-8-8-8-8---10--10--10-10-10--------------|


Guitar 2    i'll name 10 as a "t" cuz otherwise this would be endless...
E--------------------------------------------------------------------------|
B--------------------------------------------------------------------------|
G---t-t-t-t-t-t-t-t--t-t-t-t-t-t-t-t-----t-t-t-t-t-t---9-9-9-9-9-9-9-9-----|
D---x-x-x-x-x-x-x-x--x-x-x-x-x-x-x-x-----x-x-x-x-x-x---x-x-x-x-x-x-x-x-----|
A---8-8-8-8-8-8-8-8--8-8-8-8-8-8-8-8-----8-8-8-8-8-8---7-7-7-7-7-7-7-7-----|
E--------------------------------------------------------------------------|

E-------------------------------------------------------------------------|
B-------------------------------------------------------------------------|
G---9-9-9-9---7-7-7-7-7-7---9-9-9-9----7-7-7-7-7-7-7---9~--9~--9-9-9------|
D---x-x-x-x---x-x-x-x-x-x---x-x-x-x----x-x-x-x-x-x-x---x---x---x-x-x------|
A---7-7-7-7---5-5-5-5-5-5---7-7-7-7----5-5-5-5-5-5-5---7~--7~--7-7-7------|
E-------------------------------------------------------------------------|


E-----------------------------------------------------------------------|
B-----------------------------------------------------------------------|
G---t-t-t-t-t-t-t-t--t-t-t-t-t-t-t-t-----t-t-t-t-t-t---9~--9~--9~-------|
D---x-x-x-x-x-x-x-x--x-x-x-x-x-x-x-x-----x-x-x-x-x-x---x---x---x--------|
A---8-8-8-8-8-8-8-8--8-8-8-8-8-8-8-8-----8-8-8-8-8-8---7~--7~--7~-------|
E-----------------------------------------------------------------------|

E-------------------------------------------------------------------------|
B-------------------------------------------------------------------------|
G---9-9-9-9---7-7-7-7-7-7---9-9-9-9----7-7-7-7-7-7-7---9~--9~--9-9-9------|
D---x-x-x-x---x-x-x-x-x-x---x-x-x-x----x-x-x-x-x-x-x---x---x---x-x-x------|
A---7-7-7-7---5-5-5-5-5-5---7-7-7-7----5-5-5-5-5-5-5---7~--7~--7-7-7------|
E-------------------------------------------------------------------------|


Guitar 3 (additional)
E--------------------------------------------------------------------------|
B---6-6-6-6-6-6-6-6--6-6-6-6-6-6-6-6-----6-6-6-6-6-6---5-5-5-5-5-5-5-5-----|
G---5-5-5-5-5-5-5-5--5-5-5-5-5-5-5-5-----5-5-5-5-5-5---5-5-5-5-5-5-5-5-----|
D---3-3-3-3-3-3-3-3--3-3-3-3-3-3-3-3-----3-3-3-3-3-3---3-3-3-3-3-3-3-3-----|
A--------------------------------------------------------------------------|
E--------------------------------------------------------------------------|

E---------------------------------------------------------------------------|
B---5-5-5-5---3-3-3-3-3-3---5-5-5-5----3-3-3-3-3-3-3---5~--5~--5-5-5--------|
G---3-3-3-3---3-3-3-3-3-3---3-3-3-3----3-3-3-3-3-3-3---5~--5~--5-5-5--------|
D---3-3-3-3---3-3-3-3-3-3---3-3-3-3----3-3-3-3-3-3-3---5~--5~--5-5-5--------|
A---------------------------------------------------------------------------|
E---------------------------------------------------------------------------|


E----------------------------------------------------------------------|
B---6-6-6-6-6-6-6-6--6-6-6-6-6-6-6-6-----6-6-6-6-6-6---5~--5~--5~------|
G---5-5-5-5-5-5-5-5--5-5-5-5-5-5-5-5-----5-5-5-5-5-5---5~--5~--5~------|
D---3-3-3-3-3-3-3-3--3-3-3-3-3-3-3-3-----3-3-3-3-3-3---3~--3~--3~------|
A----------------------------------------------------------------------|
E----------------------------------------------------------------------|

E---------------------------------------------------------------------------|
B---5-5-5-5---3-3-3-3-3-3---5-5-5-5----3-3-3-3-3-3-3---5~--5~--5-5-5--------|
G---3-3-3-3---3-3-3-3-3-3---3-3-3-3----3-3-3-3-3-3-3---5~--5~--5-5-5--------|
D---3-3-3-3---3-3-3-3-3-3---3-3-3-3----3-3-3-3-3-3-3---5~--5~--5-5-5--------|
A---------------------------------------------------------------------------|
E---------------------------------------------------------------------------|

"""Intro III"""     0:20
E---------------------------------------------------------|
B---------------------------------------------------------|
G---------------------------------------------------------|
D---------------------------------------------------------|
A---------------------------------------------------------|
E---12-12-12-12-12-12-12-12--12-12-12-12-12-12-12-10------|

E---------------------------------------------------------|
B---------------------------------------------------------|
G---------------------------------------------------------|
D---------------------------------------------------------|
A----------------------------10-10-10-10-10-10-10-10-10---|
E---12-12-12-12-12-12-12-12--10-10-10-10-10-10-10-10-10---|

E---------------------------------------------------------|
B---------------------------------------------------------|
G---------------------------------------------------------|
D---------------------------------------------------------|
A---8-8-8-8-8-8-8-7-x3----10~--10~--10~--10~--------------|
E---8-8-8-8-8-8-8-7-------10~--10~--10~--10~--------------|

E---------------------------------------------------------------------------|
B----------------------6-6-6-6--------------5-5-5-5-5-5-5-5-x2--5-5-5-5-----|
G----------------------5-5-5-5--------------5-5-5-5-5-5-5-5-----5-5-5-5-----|
D---------------------------------------------------------------------------|
A----0000--0000--000------------0---0---0-----------------------------------|
E----0000--0000--000------------0---0---0-----------------------------------|
     ....  ....  ...            .   .   .

E---------------------------------------------------------|
B---------------------------------------------------------|
G---------------------------------------------------------|
D---------------------------------------------------------|  (Slow Down used,
A-----8-8-8-8-8-8-8-8-x3------5p0--7p0--8p0---3~----------|   100% sure!)
E-----8-8-8-8-8-8-8-8-------------------------------------|

"""Verse"""       0:38
Guitar 1
E----17~-----15~--20~--------------15~-----------|
B----------------------18~-----17~---------------|
G------------------------------------------------|
D------------------------------------------------|
A------------------------------------------------|
E------------------------------------------------|

E----17~-----15~--20~---18~--------15~-----------|
B------------------------------------------------|
G------------------------------------------------|
D------------------------------------------------|
A------------------------------------------------|
E------------------------------------------------|


Guitar 2     starts at the last 15 on the E string
E-------------------------------------------|
B-------------------------------------------|
G-------------------------------------------|
D-------------------------------------------|
A----8-8-8-8-8-8-8-8--8-8-8-8-8-8-8-8-------|
E----8-8-8-8-8-8-8-8--8-8-8-8-8-8-8-8-------|

"""Interlude I"""      0:57      UPDATED
Guitar 1     Fast-Picking on this one
E----17-x16---15-x8---13-x8------17-x16----15-x8----18-x8-----|
B-------------------------------------------------------------|
G-------------------------------------------------------------|
D-------------------------------------------------------------|
A-------------------------------------------------------------|
E-------------------------------------------------------------|

E----17-x16----15-x8----13-x8-------17-x16-----20-x-16--------|
B-------------------------------------------------------------|
G-------------------------------------------------------------|
D-------------------------------------------------------------|
A-------------------------------------------------------------|
E-------------------------------------------------------------|


Guitar 2
E---------------------------------------------------------|
B---------------------------------------------------------|
G---------------------------------------------------------|
D---------------------------------------------------------|
A---12-12-12-12-12-12-12-12--12-12-12-12-12-10-10-10------|
E---12-12-12-12-12-12-12-12--12-12-12-12-12-10-10-10------|

E---------------------------------------------------------|
B---------------------------------------------------------|
G---------------------------------------------------------|
D---------------------------------------------------------|
A---8-8-8-8-8-8-8-8--8-8-8-8-8-10-10-10-------------------|
E---8-8-8-8-8-8-8-8--8-8-8-8-8-10-10-10-------------------|

"""Pre-Chorus"""     1:15
Guitar 1                                           *
E-----------------------------------------------------------------------------|
B-----------------------------------------------------------------------------|
G-----------------------------------------------------------------------------|
D----5-5-5-5-5-5-5-5--------8-8-8-8-8-8-8-8--------12-12-12-12-12-12-12-12----|
A----5-5-5-5-5-5-5-5--x2----8-8-8-8-8-8-8-8--x2----12-12-12-12-12-12-12-12----|x2
E----5-5-5-5-5-5-5-5--------8-8-8-8-8-8-8-8--------12-12-12-12-12-12-12-12----|

E----------------------------------------------------------------------------|
B----------------------------------------------------------------------------|
G----------------------------------------------------------------------------|
D---10-10-10-10-10-10-10-10--------5--5--5--5--5--5--5--5---8-8-8-8-8-8-8-8--|
A---10-10-10-10-10-10-10-10--x2----5--5--5--5--5--5--5--5---8-8-8-8-8-8-8-8--|
E---10-10-10-10-10-10-10-10--------5--5--5--5--5--5--5--5---8-8-8-8-8-8-8-8--|


Guitar 2    starts at the *
E---------------------------------------------------------|
B---------------------------------------------------------|
G---------------------------------------------------------|
D---------------------------------------------------------|
A---5h8p5h8p5h8p5h8p5...-----4h7p4h7p4h7p4h7p4...---------|
E---------------------------------------------------------|

"""Chorus"""    1:29    kinda funny their songs now have a chorus...
U need some sort of strumming for this but im too tired to figure it out now.
Sorry...
E----------------------------------------------------------------------------|
B----------------------------------------------------------------------------|
G----------------------------------------------------------------------------|
D---12---------15--------10---------8----------10~---10----------------------|
A---12--x16----15--x8----10--x8-----8--x24-----10~---10----------------------|
E---12---------15--------10---------8----------10~---10---(15p12 or) 14p12---|

"""Post-Chorus/Pre-Breakdown"""        1:47
E----------------------------------------------------------------------|
B----------------------------------------------------------------------|
G-------------------------5-----------5--------------------------------|
D---8~---8~-8~-------5~-----7----7~-----7-----8~---8~-8~----5~---------|
A---8~---8~-8~-------5~----------7~-----------8~---8~-8~----5~---------|
E---8~---8~-8~-------5~----------7~-----------8~---8~-8~----5~---------|

"""Breakdown I"""       1:56
U have to think of this part being tabbed "half-time"... so its all played very fast... 
is the EXACT timing!
                          [         Left Speaker         ]      *
E-------------------------------------------------------------------------|
B-------------------------------------------------------------------------|
G---------------------------10-10-10-10-10-10-10-10-10-10-----------------|
D---------------------------x--x--x--x--x--x--x--x--x--x------------------|
A--00-0-0---00-0-0---000----8--8--8--8--8--8--8--8--8--8--------0000------|
E--00-0-0---00-0-0---000----------------------------------------0000------|
   .. . .   .. . .   ...                                        ....

the * is played with the snare right before the next boom ;D   1:59


Guitar 1        2:01                                 [Or 8 play both 8 times]
E--------------------------------------------------------------------------|
B--------------------------------------------------------------------------|
G--------------------------------------------------------------------------|
D--------------------------------------------------------------------------|
A---000-000---0---0---0---0-000-000--000-000---0-000---5-5-5-5--10-10-10-10|
E---000-000---0---0---0---0-000-000--000-000---0-000---0-0-0-0--10-10-10-10|
    ... ...   .   .   .   . ... ...  ... ...   . ...

                  L  R                           *
E---------------------------------------------------------------------|
B---------------------------------------------------------------------|
G---------------------------------------------------------------------|
D-----0~-----0-----------------------------------12~--12~--OOOOOOHHH--|
A---0-0~-----0----0--0----0-0-0-0----000-000--0--10~--10~-------------|
E---0-0~-----0----0--0----0-0-0-0----000-000--0--10~--10~-------------|
    .                                ... ...  .


Guitar 2  at the *
E-----------------------|
B----5~--5~-------------|
G----5~--5~-------------|
D----3~--3~-------------|
A-----------------------|
E-----------------------|

"""Breakdown II"""    2:10
E---------------------------------------------------------------------------|
B---------------------------------------------------------------------------|
G---------------------------------------------------------------------------|
D---------------------------------------------------------------------------|
A---000-000--0--0--0--0-000-000--000-000--0-0-0--0-(55555555)-10101010101010|
E---000-000--0--0--0--0-000-000--000-000--0-0-0--0--00000000--10101010101010|    ... ... 
.  .  .  . ... ...  ... ...  . . .  .

                         L   R                               *
E---------------------------------------------------------------------------|
B---------------------------------------------------------------------------|
G---------------------------------------------------------------------------|
D------------------------------------------------------------12~--12~--12~--|
A--0---00-0-0-0-0--------0---0-----0-0-0--0-0--000---0-0-0---10~--10~--10~--|
E--0---00-0-0-0-0--------0---0-----0-0-0--0-0--000---0-0-0---10~--10~--10~--|
   .                                        .  ...   , , ,

, = something between palm-mute and the usual


Guitar 2  at the *
E-----------------------|
B----5~--5~--5~---------|
G----5~--5~--5~---------|
D----3~--3~--3~---------|
A-----------------------|
E-----------------------|

"""Breakdown III"""      2:19              [  Off the beat  ]
E-----------------------------------------------------------------|
B-----------------------------------------------------------------|
G-----------------------------------------------------------------|
D----8~-----------------------------------------------------------|
A----8~-----000-000-000-000--0-0-0-0-0-0-0-0-0--0--0--0--0--0-----|
E----8~-----000-000-000-000--0-0-0-0-0-0-0-0-0--0--0--0--0--0-----|
            ... ... ... ...  . . . . . . . . .  .  .  .  .  .
                                                             Sweap Picking...
E----------------------------------------------------------------------------|
B----------------------------------------------------------------------------|
G----------------------------------------------------------------------------|
D----------------------------------------------------------------------------|
A---0-0-0-0-0-0-0-0---000-000-000-000--0-0-0-0-0-0-0-0--(55555555-55555555)--|
E---0-0-0-0-0-0-0-0---000-000-000-000--0-0-0-0-0-0-0-0---00000000-00000000---|
    . . . . . . . .   ... ... ... ...  . . . . . . . .

E-----------------------------------------------|
B-----------------------------------------------|
G-----------------------------------------------|
D-----------------------------------------------|   or play the last bit
A---1010101010101010-1010101010101010-----------|   both only 8 times ;D
E---1010101010101010-1010101010101010-----------|

"""Interlude II"""      2:30
E---------------------------------------------------------|
B---------------------------------------------------------|
G---------------------------------------------------------|
D---------------------------------------------------------|
A---------------------------------------------------------|
E---12-12-12-12-12-12-12-12--12-12-12-12-12-12-12-10------|

E-----------------------------------------------------------|
B-----------------------------------------------------------|
G-----------------------------------------------------------|
D-----------------------------------------------------------|
A----------------------------10-10-10-10-10-10-10-10--------|
E---12-12-12-12-12-12-12-12--10-10-10-10-10-10-10-10--------|

E---------------------------------------------------------|
B---------------------------------------------------------|
G---------------------------------------------------------|
D---------------------------------------------------------|
A---8-8-8-8-8-8-8-7-x3----10-10-10-10-10-10-10-10---------|
E---8-8-8-8-8-8-8-7-------10-10-10-10-10-10-10-10---------|

"""Something like a verse..."""    2:48
E---------------------------------------------------------------------------|
B---------------------------------------------------------------------------|
G---------------------------------------------------------------------------|
D----5-5-5-5-5-5-5-5--------8-8-8-8-8-8-8-8----------0-0-0-0-0-0-0-0--------|
A----5-5-5-5-5-5-5-5--x3----8-8-8-8-8-8-8-8----------0-0-0-0-0-0-0-0---x2---|
E----5-5-5-5-5-5-5-5--------8-8-8-8-8-8-8-8----------0-0-0-0-0-0-0-0--------|

E------------------------------------------------------------------|
B------------------------------------------------------------------|
G------------------------------------------------------------------|
D---10-10-10-10-10-10-10-10--------5-5-5-5-5-5-5-5--------8~-------|
A---10-10-10-10-10-10-10-10--x2----5-5-5-5-5-5-5-5--x2----8~-------|
E---10-10-10-10-10-10-10-10--------5-5-5-5-5-5-5-5--------8~-------|

"""Interlude III"""    3:02
E------------------------------------------------------|
B------------------------------------------------------|
G------------------------------------------------------|
D------------------------------------------------------|
A---8----8--8--8--8--8--8--8----7----7--7--7--7--------|
E---12---12-12-12-12-12-12-12---10---10-10-10-10-------|

"""Chorus"""     3:07
E----------------------------------------------------------------------------|
B----------------------------------------------------------------------------|
G----------------------------------------------------------------------------|
D---12---------15--------10---------8----------10~---10----------------------|
A---12--x16----15--x8----10--x8-----8--x24-----10~---10----------------------|
E---12---------15--------10---------8----------10~---10---(15p12 or) 14p12---|

E----------------------------------------------|
B----------------------------------------------|
G----------------------------------------------|
D---12---------15--------10---------8----------|
A---12--x16----15--x8----10--x8-----8--x16-----|
E---12---------15--------10---------8----------|

E----------------------------------------------------------------------------|
B----------------------------------------------------------------------------|
G-------5-----------5-----------------------------------------5--------------|
D---5~----7-----7~----7-----8~---------------------------5~----7-----7-7--7~-|
A---5~--------5-7~--------7-8~--8-8-8-8-8-8-8-8--x2------5~--------5-7-7--7~-|
E---5~--------5-7~--------7-8~--8-8-8-8-8-8-8-8----------5~--------5-7-7--7~-|

"""Silence Thing"""       3:30
Theres acutally nothing to play... but theres a clean guitar that play 2
notes with some effects in the background...
E-----------------------------------|
B-----6~------------5~--------------|
G-----------------------------------|
D-----------------------------------|
A-----------------------------------|
E-----------------------------------|

"""Outro-Chorus"""    3:48
Guitar 1
E---------------------------------------------------------------------------|
B---------------------------------------------------------------------------|
G---------------------------------------------------------------------------|
D---------------------------------------------------------------------------|
A---8-8-8-8--8-8-8-8-8-8-8-8---8-8-8-8--8-8-8-8-8-8-8---10~--10~--10~-------|
E---8-8-8-8--8-8-8-8-8-8-8-8---8-8-8-8--8-8-8-8-8-8-8---10~--10~--10~-------|

E---------------------------------------------------------------------------|
B---------------------------------------------------------------------------|
G---------------------------------------------------------------------------|
D---------------------------------------------------------------------------|
A---12-12-12-12--12-12-12-12-12-12-12-12-12-12-12---12-12-12-12-12-12-12----|
E---12-12-12-12--12-12-12-12-12-12-12-12-12-12-12---12-12-12-12-12-12-12----|

E-----------------------------|
B-----------------------------|
G-----------------------------|
D-----------------------------|
A---10~--10~--10-10-10--------|
E---10~--10~--10-10-10--------|


E------------------------------------------------------------------|
B------------------------------------------------------------------|
G------------------------------------------------------------------|
D------------------------------------------------------------------|
A---8-8-8-8--8-8-8-8-8-8-8-8---8-8-8-8--8-8-8-8-8-8-8---10~--------|
E---8-8-8-8--8-8-8-8-8-8-8-8---8-8-8-8--8-8-8-8-8-8-8---10~--------|

E---------------------------------------------------------------------------|
B---------------------------------------------------------------------------|
G---------------------------------------------------------------------------|
D---------------------------------------------------------------------------|
A---12-12-12-12--12-12-12-12-12-12-12-12-12-12-12---12-12-12-12-12-12-12----|
E---12-12-12-12--12-12-12-12-12-12-12-12-12-12-12---12-12-12-12-12-12-12----|

E-----------------------------|
B-----------------------------|
G-----------------------------|
D-----------------------------|
A---10~--10~--10-10-10--------|
E---10~--10~--10-10-10--------|


E---------------------------------------------------------------------------|
B---------------------------------------------------------------------------|
G---------------------------------------------------------------------------|
D---------------------------------------------------------------------------|
A---8-8-8-8--8-8-8-8-8-8-8-8---8-8-8-8--8-8-8-8-8-8-8---10~--10~--10~-------|
E---8-8-8-8--8-8-8-8-8-8-8-8---8-8-8-8--8-8-8-8-8-8-8---10~--10~--10~-------|

E---------------------------------------------------------------------------|
B---------------------------------------------------------------------------|
G---------------------------------------------------------------------------|
D---------------------------------------------------------------------------|
A---12-12-12-12--12-12-12-12-12-12-12-12-12-12-12---12-12-12-12-12-12-12----|
E---12-12-12-12--12-12-12-12-12-12-12-12-12-12-12---12-12-12-12-12-12-12----|

E-----------------------------|
B-----------------------------|
G-----------------------------|
D-----------------------------|
A---10~--10~--10-10-10--------|
E---10~--10~--10-10-10--------|


E---------------------------------------------------------------------------|
B---------------------------------------------------------------------------|
G---------------------------------------------------------------------------|
D---------------------------------------------------------------------------|
A---8-8-8-8--8-8-8-8-8-8-8-8---8-8-8-8--8-8-8-8-8-8-8---10~--10~--10~--fade-|
E---8-8-8-8--8-8-8-8-8-8-8-8---8-8-8-8--8-8-8-8-8-8-8---10~--10~--10~--out--|


Guitar 2    For the difference in the strumming look above (guitar 1)
E------------------------------------------------------------------------|
B------------------------------------------------------------------------|
G---9-9-7-7---7-7-7-7-7-7-7-9-9-7-7----7-7-7-7-7-7-7---9~--9~--9~--------|
D---x-x-x-x---x-x-x-x-x-x-x-x-x-x-x----x-x-x-x-x-x-x---x~--x~--x~--------|
A---7-7-5-5---5-5-5-5-5-5-5-7-7-5-5----5-5-5-5-5-5-5---7~--7~--7~--------|
E------------------------------------------------------------------------|

E-----------------------------------------------------------------------------|
B-----------------------------------------------------------------------------|
G---10-10-10-10--10-10-10-10-10-10-10-10-10-10-10--9-9-9-9-9-9-9---9~--9~-999-|
D---x--x--x--x---x--x--x--x--x--x--x--x--x--x--x---x-x-x-x-x-x-x---x~--x~-xxx-|
A---8--8--8--8---8--8--8--8--8--8--8--8--8--8--8---7-7-7-7-7-7-7---7~--7~-777-|
E-----------------------------------------------------------------------------|

Guitar 3     ADDITIONAL!     For the whole strumming look above (guitar 1)
E------------------------------------------------------------------------|
B---5-5-3-3---3-3-3-3-3-3-3-5-5-3-3---3-3-3-3-3-3-3---5~--5~--5~---------|
G---3-3-3-3---3-3-3-3-3-3-3-3-3-3-3---3-3-3-3-3-3-3---5~--5~--5~---------|
D---3-3-3-3---3-3-3-3-3-3-3-3-3-3-3---3-3-3-3-3-3-3---3~--3~--3~---------|
A------------------------------------------------------------------------|
E------------------------------------------------------------------------|

E-------------------------------------------------------------------------|
B---6-6-6-6---6-6-6-6-6-6-6-6-6-6-6---5-5-5-5-5-5-5----5~--5~--5-5-5------|
G---5-5-5-5---5-5-5-5-5-5-5-5-5-5-5---5-5-5-5-5-5-5----5~--5~--5-5-5------|
D---3-3-3-3---3-3-3-3-3-3-3-3-3-3-3---3-3-3-3-3-3-3----3~--3~--3-3-3------|
A-------------------------------------------------------------------------|
E-------------------------------------------------------------------------|


And that's pretty much it! Please rate, comment and correct me!
Cheers...
Tap to rate this tab
 
# A B C D E F G H I J K L M N O P Q R S T U V W X Y Z