Song name
# A B C D E F G H I J K L M N O P Q R S T U V W X Y Z

Bring Me The Horizon - Seen It All Before tab

Bring Me The Horizon - Seen It All Before

Tuning - Drop C#

Intro
(Lead)

-9----9----10--7--5-4--5----7--9----12-----9--7-|
------------------------------------------------|
------------------------------------------------|
------------------------------------------------|
------------------------------------------------|
------------------------------------------------|
Intro
(Rhythm)

------------------------|
--7----5----------------|
--6----6----7----9------|
--4----7----7----9------|
------------5----7------|
------------------------|

Main Riff/Chorus
(Lead)

--12----------12--------|
-----14----------14-----|
--------9-11--------11--|
------------------------| Repeat as many times necessary
------------------------|
------------------------|

Main Riff/Chorus
(Rhythm)

---------------------------------------------------------------------------|
---------------------------------------------------------------------------|
-------999999999-------999-977-666------999999999-------13131313-44-141414-|
-------xxxxxxxxx-------xxx-xxx-xxx------xxxxxxxxx-------xxxxxxxx-xx-xxxxxx-|
-------777777777-------777-755-444------777777777-------11111111-22-121212-|
--000------------4444--------------000------------222----------------------|

Verse
(Lead)

---------------------------|
---------------------------|
--11----11-14-9--9-11-7-6--|
--11----11-11-11-1111------| x2
---------------------------|
---------------------------|

Verse
(Rhythm)

-----
--5--
---6-
----- Repeat as many times necessary
-----
-----

Chorus
(Lead)

--12----------12--------|
-----14----------14-----|
--------9-11--------11--|
------------------------| Repeat as many times necessary
------------------------|
------------------------|

Chorus
(Rhythm)

----------------------------------------------------------------------------|
----------------------------------------------------------------------------|
-------999999999-------999-977-666------999999999-------13131313-44-141414--|
-------xxxxxxxxx-------xxx-xxx-xxx------xxxxxxxxx-------xxxxxxxx-xx-xxxxxx--| x2
-------777777777-------777-755-444------777777777-------11111111-22-121212--|
--000------------4444--------------000------------222-----------------------|

Breakdown thingy
(Lead)

--------------------------------|
--14-15-14-12-12-15-1515-141414-|
--------------------------------|
--------------------------------| Repeat as many times necessary
--------------------------------|
--------------------------------|

Breakdown thingy
(Rhythm)

-----------------------|
-----------------------|
-----------------------|
---4-4-4-4--4-4--------| x4
---4-4-4-4--4-4--------|
---4-4-4-4--4-4--------|

Quiet Part

--9-
-10-
---- x4
----
----
----

Build Up
(Lead)

--------------------------------|
--14-15-14-12-12-15-1515-141414-|
--------------------------------|
--------------------------------| Repeat as many times necessary
--------------------------------|
--------------------------------|

Build Up
(Rhythm)

---------------------------------------|
---------------------------------------|
---------------------------------------|
--0----0----2----2----0----0----2----2-|
--0----0----2----2----0----0----2----2-|
--0----0----2----2----0----0----2----2-|

Build Up
(Additional)

--9-
-10-
---- Repeat as many times necessary
----
----
----


Chorus
(Lead)

--12----------12--------|
-----14----------14-----|
--------9-11--------11--|
------------------------| Repeat as many times necessary
------------------------|
------------------------|

Chorus
(Rhythm)

----------------------------------------------------------------------------|
----------------------------------------------------------------------------|
-------999999999-------999-977-666------999999999-------13131313-44-141414--|
-------xxxxxxxxx-------xxx-xxx-xxx------xxxxxxxxx-------xxxxxxxx-xx-xxxxxx--| x2
-------777777777-------777-755-444------777777777-------11111111-22-121212--|
--000------------4444--------------000------------222-----------------------|

Calm Part
(Lead)

----------------------------------------|
----------------------------------------|
--6(x16)-7(x8)-5(x8)-7(x9)-6(x7)-2(x16--|
----------------------------------------|
----------------------------------------|
----------------------------------------|

Calm Part
(Rhythm)

------------------------------------|
------------------------------------|
------------------------------------|
--4------2------9------0------------|
--4(x25)-2(x7)--9(x16)-0(x16)-------|
--4------2------9------0------------|

Heavy Part
(Lead)

--------------------------------|
--14-15-14-12-12-15-1515-141414-|
--------------------------------|
--------------------------------| Repeat as many times necessary
--------------------------------|
--------------------------------|

Heavy Part
(Rhythm)

------------------------------------|
------------------------------------|
------------------------------------|
--4------2------9------0------------| x2
--4(x25)-2(x7)--9(x16)-0(x16)-------|
--4------2------9------0------------|

Heavy Part
(Additional)

------------------------------------------|
------------------------------------------|
----------------7------6-----4------------|
--4------2------x(x8)--x(x8)-x(x16)-------| x2
--4(x25)-2(x7)--5------4-----2------------|
--4------2--------------------------------|

Ending
(Lead)

----------------------------------|
----------------------------------|
--6(x16)-7(x8)-5(x8)-7(x9)-6(x7)--|
----------------------------------|
----------------------------------|
----------------------------------|

Ending
(Rhythm)

------------------------------------|
------------------------------------|
------------------------------------|
--4------2------9------0------------|
--4(x25)-2(x7)--9(x16)-0(x9)--------|
--4------2------9------0------------|
Tap to rate this tab
 
# A B C D E F G H I J K L M N O P Q R S T U V W X Y Z