Song name
# A B C D E F G H I J K L M N O P Q R S T U V W X Y Z

Bring Me The Horizon - Join The Club tab

Intro: Riffs

e|--------------------------|
B|--------------------------|
G|------8~-5h6p5------------|X8
D|--3-8---------------------|X8
A|--------------------------|
D|--------------------------|

Refrain: Chords

e|-------------------------------|
B|-------------------------------|
G|-----8---------8---------------|X2
D|--3--8X2--3----8X3--6----------|X2
A|--3--6----3X2--6----6X13-------|X2
D|--3-------3---------6----------|X2

Interlude: Riff

e|--------------------------|
B|--------------------------|
G|------8~-5h6p5------------|X2
D|--3-8---------------------|X2
A|--------------------------|
D|--------------------------|

Interlude: Chords

e|-----------|
B|-----------|
G|--10~------|
D|--10~------|
A|-----------|
D|-----------|

Well join the club!

e|-------------------------------|
B|-------------------------------|
G|-------------------------------|
D|--0----8----x----6-------------|
A|--0X2--8X3--xX2--6X3-----------|
D|--0----8----x----6-------------|

Interlude: Riff

e|--------------------------|
B|--------------------------|
G|------8~-5h6p5------------|X2
D|--3-8---------------------|X2
A|--------------------------|
D|--------------------------|

Interlude: Chords

e|-----------|
B|-----------|
G|--10~------|
D|--10~------|
A|-----------|
D|-----------|

Well join the club!

e|-------------------------------|
B|-------------------------------|
G|-------------------------------|
D|--0----8----x----6-------------|
A|--0X2--8X3--xX2--6X3-----------|
D|--0----8----x----6-------------|

Interlude 2: Chords

e|---------------------------|----------------------------------|
B|---------------------------|----------------------------------|
G|---------------------------|----------------------------------|
D|--3^--3--x----3^--3--1\12--|--3^--3--x----0-------------------|X2
A|------3--xX4------3--1\12--|------3--xX4--0X3-----------------|X2
D|------3--x--------3--1\12--|------3--x----0-------------------|X2

Refrain: Chords

e|-------------------------------|
B|-------------------------------|
G|-----8---------8---------------|X4
D|--3--8X2--3----8X3--6----------|X4
A|--3--6----3X2--6----6X13-------|X4
D|--3-------3---------6----------|X4

Refrain: Riffs (Do you think you're the only one..?)

e|-------------------------------------|
B|-------------------------------------|
G|--8^8^8^5-X2--5^5^5^5----------------|X2
D|-------------------------------------|
A|-------------------------------------|
D|-------------------------------------|

Interlude 2: Chords

e|---------------------------|----------------------------------|
B|---------------------------|----------------------------------|
G|---------------------------|----------------------------------|
D|--3^--3--x----3^--3--1\12--|--3^--3--x----0-------------------|X2
A|------3--xX4------3--1\12--|------3--xX4--0X3-----------------|X2
D|------3--x--------3--1\12--|------3--x----0-------------------|X2

Soft piano...

Refrain: Chords

e|-------------------------------|
B|-------------------------------|
G|-----8---------8---------------|X4
D|--3--8X2--3----8X3--6----------|X4
A|--3--6----3X2--6----6X13-------|X4
D|--3-------3---------6----------|X4

Refrain: Riffs (Do you think you're the only one..?)

e|-------------------------------------|
B|-------------------------------------|
G|--8^8^8^5-X2--5^5^5^5----------------|X2
D|-------------------------------------|
A|-------------------------------------|
D|-------------------------------------|

End: Chords

e|---------------------|
B|---------------------|
G|---------------------|
D|--3^--3--------------|
A|------3X6------------|
D|------3--------------|
Tap to rate this tab
# A B C D E F G H I J K L M N O P Q R S T U V W X Y Z