Song name
# A B C D E F G H I J K L M N O P Q R S T U V W X Y Z

Bring Me The Horizon - The House Of Wolves tab

BRING ME THE HORIZON

THE HOUSE OF WOLVES

CGCFAD

TABBED BY andherembrace





--------------------------------------------|
--------------------------------------------|
--------------------------------------------|
----------8--5-5-7--------------------------|
----------6--3-3-5--------------------------|
-0-0-0-0-------------0-0-0-0-0--0-0-0-0-0---|
   *   *               *   *      *   *
       
L                 
--------------------------------------|
--------------------------------------|
--------------------------------------|
----------8--5-5-7--------------------|
----------6--3-3-5---1--3--4---4-4-1--|
-0-0-0-0-------------1--3--4---4-4-1--|
   *   *               
R
--------------------------------------|
----------------------------0---------|
----------------------------2---------|
--------------------------------------|
--------------------------------------|
--------------------------------------|



0:06

B
--------------------------------------------|
--------------------------------------------|
--------------------------------------------|
----------8--5-5-7--------------------------|
----------6--3-3-5--------------------------|
-0-0-0-0-------------0-0-0-0-0--0-0-0-0-0---|
   *   *               *   *      *   *

1                
--------------------------------------|
--------------------------------------|
--------------------------------------|
----------8--5-5-7--------------------|
----------6--3-3-5---1--3--4---4-4-1--|
-0-0-0-0-------------1--3--4---4-4-1--|
   *   *               
2                 
----------------------------------------|
-------------------------------0--------|
-------------------------------2--------|
----------8--5-5-7----------------------|
----------6--3-3-5---1--3--4------------|
-0-0-0-0-------------1--3--4------------|
   *   *                         |

B
--------------------------------------------|
--------------------------------------------|
--------------------------------------------|
----------8--5-5-7--------------------------|
----------6--3-3-5--------------------------|
-0-0-0-0-------------0-0-0-0-0--0-0-0-0-0---|
   *   *               *   *      *   *

1                 
--------------------------------------|
--------------------------------------|
--------------------------------------|
----------8--5-5-7--------------------|
----------6--3-3-5---1--3--4---4-4-1--|
-0-0-0-0-------------1--3--4---4-4-1--|
   *   *               
2                
--------------------------------------|
-------------------------------0------|
-------------------------------2------|
----------8--5-5-7--------------------|
----------6--3-3-5---1--3--4----------|
-0-0-0-0-------------1--3--4----------|
   *   *                         |


0:18

L
---------------------------------------------------------------------|
---------------------------------------------------------------------|
---------------------------------------------------------------------|
---------------------------------------------------------------------|
---------------------------------------------------------------------|
-0-00-00--00-000--3-33-33--33-333/8-88-88--88-888--88888888-00000000-|

--------------------------------------------------------------------------|
--------------------------------------------------------------------------|
--------------------------------------------------------------------------|
--------------------------------------------------------------------------|
--------------------------------------------------------------------------|
-0-00-00--00-000--3-33-33--33-333/8-88-88--888-888-8-000000-11111111111111|




0:31

--------------------------------------------|
--------------------------------------------|
--------------------------------------------|
----------8--5-5-7--------------------------|
----------6--3-3-5--------------------------|
-0-0-0-0-------------0-0-0-0-0--0-0-0-0-0---|
   *   *               *   *      *   *


-----------------------------------------|
-----------------------------------------|
-----------------------------------------|
----------8--5-5-7---____----------------|
----------6--3-3-5---)   (---------------|
-0-0-0-0------------1-------4-3-1-3-1-0--|
   *   *              


--------------------------------------------|
--------------------------------------------|
--------------------------------------------|
----------8--5-5-7--------------------------|
----------6--3-3-5--------------------------|
-0-0-0-0-------------0-0-0-0-0--0-0-0-0-0---|
   *   *               *   *      *   *


--------------------------|
--------------------------|
--------------------------|
----------8--5-5-7--------|
----------6--3-3-5-1-1-4--|
-0-0-0-0-----------1-1-4--|
   *   *                |



0:44

MELODY
------------------------------------------------------------------|
---11--11--11--11--10--10--10--10---8---8---8---8---6---6---3---3-|
-14--14--14--14--12--12--12--12---10--10--10--10--9---9---5---5---|
------------------------------------------------------------------|
------------------------------------------------------------------|
------------------------------------------------------------------|

RYTHM
-----------------------------------------------------------------|
-----------------------------------------------------------------|
-----------------------------------------------------------------|
-----------------------------------------------------------------|
-----------------------------------------------------------------|
-0-0-0-0-0-0-0-0-0-3-3-3-3-3-3/8-8-8-8-8-8-8-8-8-8-8-8-8-0-0-0-0-|


MELODY
------------------------------------------------------------------|
---11--11--11--11--10--10--10--10---8---8---8---8---6---6---8---8-|
-14--14--14--14--12--12--12--12---10--10--10--10--9---9---10--10--|
------------------------------------------------------------------|
------------------------------------------------------------------|
------------------------------------------------------------------|

RYTHM
------------------------------------------------------------------------|
------------------------------------------------------------------------|
------------------------------------------------------------------------|
------------------------------------------------------------------------|
------------------------------------------------------------------------|
0-0-0-0-0-0-0-0-0-3-3-3-3-3-3/8-8-8-8-8-8-8-8-8-0-0-0-0-1111111111111111|



0;56

L
--------------------------------------|
--------------------------------------|
--------------------------------------|
--------------------------------------|
--------------------------------------|
-0-0-0-0-0-0-0-0-3-3-3-3-4-3-1-3-1-0--|

R
---------------------------------------|
---------------------------------------|
---------------------------------------|
---------------------------------------|
---------------------------------------|
-0----------------3------4-3-1-3-1-0---|



1:00


--------------------------------------------|
--------------------------------------------|
--------------------------------------------|
----------8--5-5-7--------------------------|
----------6--3-3-5--------------------------|
-0-0-0-0-------------0-0-0-0-0--0-0-0-0-0---|
   *   *               *   *      *   *

---------------------------------------|
---------------------------------------|
---------------------------------------|
--------------------7------------------|
---------1------3-4-5-------1-----4-3--|
-0-0-0-0-1---11-3-4---0-0-0-1--11-4-3--|
   *   *              *   *      

--------------------------------------------|
--------------------------------------------|
--------------------------------------------|
----------8--5-5-7--------------------------|
----------6--3-3-5--------------------------|
-0-0-0-0-------------0-0-0-0-0--0-0-0-0-0---|
   *   *               *   *      *   *

---------------------------------------|
---------------------------------------|
---------------------------------------|
--------------------7------------------|
---------1------3-4-5-------1-----4-3--|
-0-0-0-0-1---11-3-4---0-0-0-1--11-4-3--|
   *   *              *   *      




1:12


MELODY
------------------------------------------------------------------|
---11--11--11--11--10--10--10--10---8---8---8---8---6---6---3---3-|
-14--14--14--14--12--12--12--12---10--10--10--10--9---9---5---5---|
------------------------------------------------------------------|
------------------------------------------------------------------|
------------------------------------------------------------------|

RYTHM
-----------------------------------------------------------------|
-----------------------------------------------------------------|
-----------------------------------------------------------------|
-----------------------------------------------------------------|
-5---------------------------------------------------------------|
-0-0-0-0-0-0-0-0-0-3-3-3-3-3-3/8-8-8-8-8-8-8-8-8-8-8-8-8-0-0-0-0-|


MELODY
------------------------------------------------------------------|
---11--11--11--11--10--10--10--10---8---8---8---8---6---6---8---8-|
-14--14--14--14--12--12--12--12---10--10--10--10--9---9---10--10--|
------------------------------------------------------------------|
------------------------------------------------------------------|
------------------------------------------------------------------|

RYTHM
------------------------------------------------------------------------|
------------------------------------------------------------------------|
------------------------------------------------------------------------|
------------------------------------------------------------------------|
------------------------------------------------------------------------|
0-0-0-0-0-0-0-0-0-3-3-3-3-3-3/8-8-8-8-8-8-8-8-8-0-0-0-0-1111111111111111|



1:25

L
------------------------------------------------------------------------|
------------------------------------------------------------------------|
------------------------------------------------------------------------|
------------------------------------------------------------------------|
------------------------------------------------------------------------|
-0-0-0-0-0-0-0-0-3-3-3-3-3-3-3/8-8-8-8-8-8-8-8-8-8-8-8-8-4-3-1-0-3-1-0-0|

R
------------------------------------------------------------------------|
------------------------------------------------------------------------|
------------------------------------------------------------------------|
------------------------------------------------------------------------|
------------------------------------------------------------------------|
-0----------------3------------3/8--------------(8)------4-3-1-0-3-1-0-0|





MELODY
------------------------------------------------------------------|
---11--11--11--11--10--10--10--10---8---8---8---8---6---6---8---8-|
-14--14--14--14--12--12--12--12---10--10--10--10--9---9---10--10--|
------------------------------------------------------------------|
------------------------------------------------------------------|
------------------------------------------------------------------|

RYTHM
---------------------------------------------------------------------|
---------------------------------------------------------------------|
---------------------------------------------------------------------|
---------------------------------------------------------------------|
---------------------------------------------------------------------|
-0-0-0-0-0-0-0-0-0-3-3-3-3-3-3/8-8-8-8-8-8-8-8-8-0-0-0-0-11-11-11-11-|




1:37

B
-----------------------------------------|
-----------------------------------------|
-----------------------------------------|
-----------------------------------------|
-----------------------------------------|
-0---4-3-1-3-1-0-0---4-3-1-3-1-0-0-------|
                                   |

1:40

CUTS IN
L
--------------------------------------------------|
--------------------------------------------------|
--------------------------------------------------|
--------------------------------------------------|
--------------------------------------------------|
-121212121212121212121212121212121212101010101010-|

L CONT.
---------------------------------------------------|
---------------------------------------------------|
---------------------------------------------------|
---------------------------------------------------|
---------------------------------------------------|
-131313131313131313131313000000-17-15-13-15-13-12--|


B                                                            L
----------------------------------------------------------------|
----------------------------------------------------------------|
----------------------------------------------------------------|
----------------------------------------------------------------|
--------------------------------------------------------------)-|
-0-----4-3-1-3-1-0-0--4-3-1-3-1-0-0--0--0--4-3-1-3-1-0-0--0--1--|
   |                |




1:53

L
--------------------------------------------------|
--------------------------------------------------|
--------------------------------------------------|
--------------------------------------------------|
--------------------------------------------------|
-121212121212121212121212121212121212101010101010-|
L CONT.
-------------------------------------------------|
-------------------------------------------------|
-------------------------------------------------|
-------------------------------------------------|
-------------------------------------------------|
-131313131313131313131313-0-0-17-15-13-15-13-12--|

R
---------------------------------------------------------------|
---------------------------------------------------------------|
---------------------------------------------------------------|
---------------------------------------------------------------|
---------------------------------------------------------------|
-0-----4-3-1-3-1-0-0--4-3-1-3-1-0-0--0--0--4-3-1-3-1-0-0--0----|
   |                |                                       |



1:59
B
-------------------------------------------------------|
-------------------------------------------------------|
-------------------------------------------------------|
-------------------------------------------------------|
-------------------------------------------------------|
-0-0-0-0-0-0-0-0-0-0-0-0-0-0-0-0-0-0-10-10-10-10-10-10-|


-------------------------------------------------|
-------------------------------------------------|
-------------------------------------------------|
-------------------------------------------------|
-------------------------------------------------|
-1-1-1-1-1-1-1-1-1-1-1-1-1-1-1-1-1-1-4-3-1-3-1-0-|


-------------------------------------------------------|
-------------------------------------------------------|
-------------------------------------------------------|
-------------------------------------------------------|
-------------------------------------------------------|
-0-0-0-0-0-0-0-0-0-0-0-0-0-0-0-0-0-0-10-10-10-10-10-10-|


-------------------------------------------------|
-------------------------------------------------|
-------------------------------------------------|
-------------------------------------------------|
-------------------------------------------------|
-1-1-1-1-1-1-1-1-1-1-1-1-1-1-1-1-1-1-4-3-1-3-1-0-|




2:12

--------------------------------------------------|
--------------------------------------------------|
--------------------------------------------------|
--------------------------------------------------|
--------------------------------------------------|
-000-0-0-0-000-0-0-0-000-0-0-0-10-10-10-10-10-10--|
 ***   *   ***   *   ***   *

-------------------------------------------------|
-------------------------------------------------|
-------------------------------------------------|
-------------------------------------------------|
-------------------------------------------------|
-1-1-1-1-1-1-1-1-1-1-1-1-1-1-1-1-1-1-4-3-1-3-1-0-|


--------------------------------------------------|
--------------------------------------------------|
--------------------------------------------------|
--------------------------------------------------|
--------------------------------------------------|
-000-0-0-0-000-0-0-0-000-0-0-0-10-10-10-10-10-10--|
 ***   *   ***   *   ***   *

------------------------------------------------|
------------------------------------------------|
------------------------------------------------|
------------------------------------------------|
------------------------------------------------|
-1-1-1-1-1-1-1-1-1-1-1-1-1--1--1--1--1--1--1--1-|



MELODY IN BACKGROUND




2:37


MELODY
------------------------------------------------------------------|
---11--11--11--11--10--10--10--10---8---8---8---8---6---6---3---3-|
-14--14--14--14--12--12--12--12---10--10--10--10--9---9---5---5---|
------------------------------------------------------------------|
------------------------------------------------------------------|
------------------------------------------------------------------|

RYTHM
-----------------------------------------------------------------|
-----------------------------------------------------------------|
-----------------------------------------------------------------|
-----------------------------------------------------------------|
-5---------------------------------------------------------------|
-0-0-0-0-0-0-0-0-0-3-3-3-3-3-3/8-8-8-8-8-8-8-8-8-8-8-8-8-0-0-0-0-|


MELODY
------------------------------------------------------------------|
---11--11--11--11--10--10--10--10---8---8---8---8---6---6---8---8-|
-14--14--14--14--12--12--12--12---10--10--10--10--9---9---10--10--|
------------------------------------------------------------------|
------------------------------------------------------------------|
------------------------------------------------------------------|

RYTHM
------------------------------------------------------------------------|
------------------------------------------------------------------------|
------------------------------------------------------------------------|
------------------------------------------------------------------------|
------------------------------------------------------------------------|
0-0-0-0-0-0-0-0-0-3-3-3-3-3-3/8-8-8-8-8-8-8-8-8-0-0-0-0-1111111111111111|




MELODY
------------------------------------------------------------------|
---11--11--11--11--10--10--10--10---8---8---8---8---6---6---3---3-|
-14--14--14--14--12--12--12--12---10--10--10--10--9---9---5---5---|
------------------------------------------------------------------|
------------------------------------------------------------------|
------------------------------------------------------------------|

RYTHM
-----------------------------------------------------------------|
-----------------------------------------------------------------|
-----------------------------------------------------------------|
-----------------------------------------------------------------|
-----------------------------------------------------------------|
-0-0-0-0-0-0-0-0-0-3-3-3-3-3-3/8-8-8-8-8-8-8-8-8-8-8-8-8-0-0-0-0-|


MELODY
------------------------------------------------------------------|
---11--11--11--11--10--10--10--10---8---8---8---8---6---6---8---8-|
-14--14--14--14--12--12--12--12---10--10--10--10--9---9---10--10--|
------------------------------------------------------------------|
------------------------------------------------------------------|
------------------------------------------------------------------|

RYTHM
---------------------------------------------------------------------|
---------------------------------------------------------------------|
---------------------------------------------------------------------|
---------------------------------------------------------------------|
---------------------------------------------------------------------|
-0-0-0-0-0-0-0-0-0-3-3-3-3-3-3/8-8-8-8-8-8-8-8-8-0-0-0-0-11-11-11-11-|



3:02

1 + DELAY
   _______~~~~~~~~~~~~~~~~~~~~~~~~~~
---)-----------------------------------------------------------|
-14------------------------------------------------------------|
-17------------------------------------------------------------|
---------------------------------------------------------------|
---------------------------------------------------------------|
---------------------------------------------------------------|

2
                                                    L
--------------------------------------------------------------|
--------------------------------------------------------------|
--------------------------------------------------------------|
--------------------------------------------------------------|
--------------------------------------------------------------|
0----4-3-1-3-1-0-0----4-3-1-3-1-0-0--0----4-3-1-3-1-0-0--0--0-|



                                                             L
----------------------------------------------------------------|
----------------------------------------------------------------|
----------------------------------------------------------------|
----------------------------------------------------------------|
-5-----------------5------------------------------------------)-|
-0-----4-3-1-3-1-0-0--4-3-1-3-1-0-0--0--0--4-3-1-3-1-0-0--0--1--|
   |                |

-------------------------------------------------------------|
-------------------------------------------------------------|
-------------------------------------------------------------|
-------------------------------------------------------------|
-------------------------------------------------------------|
-0-----4-3-1-3-1-0-0--4-3-1-3-1-0-0--0--0--4-3-1-3-1-0-0--0--|
   |                |



-----------------------------|
-----------------------------|
-----------------------------|
-----------------------------|
-----------------------------|
-4-3-1-3-1-0-----------------|
            |
Tap to rate this tab
# A B C D E F G H I J K L M N O P Q R S T U V W X Y Z