Bring Me The Horizon - I Used To Make Out With Medusa tab

Song Title: (I Use to Make-Out with) Medusa
Artist: Bring Me the Horizon
Album: Count Your Blessings

Tuning: Drop B
(B F# B E G# C#)

Key:
* Palm Mute
h Hammer On
p Pull Off

Guitar 1:

0:00-0:28

C#----------------------------------]
G#----------------------------------]
E ----------------------------------]
B ----------7-----------------------]
F#-0-0--0-0--10-8-7-0-0-4h5-0-0-8p7-]
B -0-0--0-0---------0-0-----0-0-----]
   * *  * *         * *     * *

C#----------------------------------]
G#----------------------------------]
E ----------------------------------]
B ----------7-----------------------]
F#-0-0--0-0--10-8-7----5h8---7h10---]
B -0-0--0-0---------5h7---7h9-------]
   * *  * *

C#----------------------------------]
G#----------------------------------]
E ----------------------------------]
B ----------7-----------------------]
F#-0-0--0-0--10-8-7-0-0-4h5-0-0-8p7-]
B -0-0--0-0---------0-0-----0-0-----]
   * *  * *         * *     * *

C#----------------------------------]
G#----------------------------------]
E ----------------------------------]
B ----------7--------------5-----7-8]
F#-0-0--0-0--10-8-7--5-7-8---8-7----]
B -0-0--0-0-------------------------]
   * *  * *



Guitar 2:

0:00-0:28

C#----------------------------------]
G#----------------------------------]
E ----------5-----------------------]
B ------------8-7-5-------------6p5-]
F#-0-0--0-0---------0-0-7h8-0-0-----]
B -0-0--0-0---------0-0-----0-0-----]
   * *  * *         * *     * *

C#----------------------------------]
G#----------------------------------]
E ----------5-----------------------]
B ------------8-7-5-----------------]
F#-0-0--0-0------------5h8---7h10---]
B -0-0--0-0---------5h7---7h9-------]
   * *  * *

C#----------------------------------]
G#----------------------------------]
E ----------5-----------------------]
B ------------8-7-5-------------6p5-]
F#-0-0--0-0---------0-0-7h8-0-0-----]
B -0-0--0-0---------0-0-----0-0-----]
   * *  * *         * *     * *

C#----------------------------------]
G#----------------------------------]
E ----------5-----------------------]
B ------------8-7-5-------5-----7-8-]
F#-0-0--0-0---------5-7-8---8-7-----]
B -0-0--0-0-------------------------]
   * *  * *


Once you memorize it or practice it for about 5 min it is fairly simple and VERY fun to play.
Tap to rate this tab
 
# A B C D E F G H I J K L M N O P Q R S T U V W X Y Z