Song name
# A B C D E F G H I J K L M N O P Q R S T U V W X Y Z

Britney Spears - I Love Rock N Roll tab

---Intro---
|----------------------------------------------------------------------------------|
|----------------------------------------------------------------------------------|
|----------------------------------------------------------------------------------|
|----------------------------------------------------------------------------------|
|--2--2---2--2---5/6---7--7---9--9---8/7---2--2---2--2---5/6---7--7---9/8---2--2---|
|--0--0---0--0---3/4---5--5---7--7---6/5---0--0---0--0---3/4---5--5---7/6---0--0---|


---Bridge---
|-------------------------------------------------------------------------------------|
|-------------------------------------------------------------------------------------|
|-------------------------------------------------------------------------------------|  
|-----------9--7--------------------------------------9--7----------------------------|  
|--2--2-----7--5--9--7--5---2--2----------2--2-----7--5--9--7--5---2--2---------9--9--|
|--0--0-----------7--5--3---0--0----------0--0-----------7--5--3---0--0---------7--7--|


|-------------------------------------------------------------------------------------|
|-------------------------------------------------------------------------------------|
|-------------------------------------------------------------------------------------|
|--9--7-------------------------------------------------------------------------------|
|--7--5--9--7--5---7--7---9--9---2--2----7---------------------------5-5-5-5-5-5-5-5--|
|--------7--5--3---5--5---7--7---0--0----5---------------------------3-3-3-3-3-3-3-3--|


---Chorus--- 
|-----------------------------------------------------------------------------------|
|-----------------------------------------------------------------------------------|
|-----------------------------------------------------------------------------------|
|-----------------------------------------------------------------------------------|
|--2--2---2--2---5/6---7--7---9--9---2--2---2--2---5/6---7--7---9/8---2--2----------|
|--0--0---0--0---3/4---5--5---7--7---0--0---0--0---3/4---5--5---7/6---0--0----------|


---Bridge---
|------------------------------------------------------------------------------------|
|------------------------------------------------------------------------------------|
|------------------------------------------------------------------------------------|  
|-----------9--7----------------------------------------9--7-------------------------|  
|--2--2-----7--5--9--7--5---2--2---------2--2-----7--5--9--7--5---2--2---------9--9--|
|--0--0-----------7--5--3---0--0---------0--0-----------7--5--3---0--0---------7--7--|


|-------------------------------------------------------------------------------------|
|-------------------------------------------------------------------------------------|
|-------------------------------------------------------------------------------------|
|--9--7-------------------------------------------------------------------------------|
|--7--5--9--7--5---7--7---9--9---2--2---7----------------------------5-5-5-5-5-5-5-5--|
|--------7--5--3---5--5---7--7---0--0---5----------------------------3-3-3-3-3-3-3-3--|


---Chorus---
|-----------------------------------------------------------------------------------|
|-----------------------------------------------------------------------------------|
|-----------------------------------------------------------------------------------|
|-----------------------------------------------------------------------------------|
|--2--2---2--2---5/6---7--7---9--9---2--2---2--2---5/6---7--7---9/8---2--2----------|
|--0--0---0--0---3/4---5--5---7--7---0--0---0--0---3/4---5--5---7/6---0--0----------|


|----------------------------------|
|----------------------------------|
|----------------------------------| 
|------------9--7------------------|
|--2--2------7--5--9--7--5---2--2--|
|--0--0------------7--5--3---0--2--|


---Solo---


---Chorus--- 
|-----------------------------------------------------------------------------------|
|-----------------------------------------------------------------------------------|
|-----------------------------------------------------------------------------------|
|-----------------------------------------------------------------------------------|
|--2--2---2--2---5/6---7--7---9--9---2--2---2--2---5/6---7--7---9/8---2--2----------|
|--0--0---0--0---3/4---5--5---7--7---0--0---0--0---3/4---5--5---7/6---0--0----------|


|-----------------------------------------------------------------------------------|
|-----------------------------------------------------------------------------------|
|-----------------------------------------------------------------------------------|
|-----------------------------------------------------------------------------------|
|--2--2---2--2---5/6---7--7---9--9---2--2---2--2---5/6---7--7---9/8---2--2----------|
|--0--0---0--0---3/4---5--5---7--7---0--0---0--0---3/4---5--5---7/6---0--0----------|


|-----------------------------------------------------------------------------------|
|-----------------------------------------------------------------------------------|
|-----------------------------------------------------------------------------------|
|-----------------------------------------------------------------------------------|
|--2--2---2--2---5/6---7--7---9--9---2--2---2--2---5/6---7--7---9/8---2--2----------|
|--0--0---0--0---3/4---5--5---7--7---0--0---0--0---3/4---5--5---7/6---0--0----------|


|-----------------------------------------------------------------------------------|
|-----------------------------------------------------------------------------------|
|-----------------------------------------------------------------------------------|
|-----------------------------------------------------------------------------------|
|--2--2---2--2---5/6---7--7---9--9---2--2---2--2---5/6---7--7---9/8---2--2----------|
|--0--0---0--0---3/4---5--5---7--7---0--0---0--0---3/4---5--5---7/6---0--0----------|


|-----------------------------------------------------------------------------------|
|-----------------------------------------------------------------------------------|
|-----------------------------------------------------------------------------------|
|-----------------------------------------------------------------------------------|
|--2--2---2--2---5/6---7--7---9--9---2--2---2--2---5/6---7--7---9/8---2--2----------|
|--0--0---0--0---3/4---5--5---7--7---0--0---0--0---3/4---5--5---7/6---0--0----------|
Tap to rate this tab
# A B C D E F G H I J K L M N O P Q R S T U V W X Y Z