Song name
# A B C D E F G H I J K L M N O P Q R S T U V W X Y Z

Britney Spears - Cinderella tab

e|---0---|---1---|---0---|---3---|---1---|
B|---1---|---1---|---1---|---3---|---3---|
G|---2---|---2---|---0---|---0---|---2---|
D|---2---|---3---|---2---|---0---|---0---|
A|---0---|--(3)--|---3---|---2---|---0---|
E|---0---|--(1)--|---0---|---3---|---x---|

E|-----1------------------------------------------|
B|-3-4---1---1-3-4-------1-3-4-3-1----------------|
G|-----------------3---3--------------------------|
D|------------------------------------------------|
A|------------------------------------------------|
E|------------------------------------------------|

I used to be your girlfriend and I know I did it well
Oh yes you know it's true
You'd call me Cinderella
All you had to do was yell
And I'd be there for you

Here I am
So try to forgive me
I don't believe in fairy tales
Here we are
With nothing but honesty
I've had enough
I'm not gonna stay

I'm sorry for running away like this
And I'm sorry
I've already made my wish
Ah, But Cinderella's got to go

From time to time I'd try to tell just what was on my mind.
You'd tell me not today.
Come back, do that.
Wheres Cinderella at?
Was all you had to say

Here I am
So try to forgive me
I don't believe in fairy tales
Here we are
with nothing but honesty
I've had enough
I'm not gonna stay

I'm sorry for running away like this
And I'm sorry I've already made my wish
Ah, But Cinderella's got to go

I'm sorry, just trying to live my life
Don't worry you're gonna be alright...
But Cinderella's got to go

(whisper)
I used to say I want you
You cast me in your spell
I did everything you wanted me to...but now I shall

Break free from all your lies
I won't be blind, you see
My love, it can't be sacrificed
I won't return to thee

I'm so sorry
Ive already
Made up my mind
I won't return to thee

I'm sorry to say, I'm running away now
Don't worry, you will be alright

I'm running away
I've made up my mind now
You're gonna have to let me go..
'coz she's gotta go..

I'm sorry for running away like this
And I'm sorry
I've already made my wish
Ah, But Cinderella's got to go
I'm sorry, just trying to live my life
Don't worry you're gonna be alright...
But Cinderella's got to go
Tap to rate this tab
 
# A B C D E F G H I J K L M N O P Q R S T U V W X Y Z