Song name
# A B C D E F G H I J K L M N O P Q R S T U V W X Y Z

Broken 50 Four - Tell Me tab

------------------------------|
------------------------------|
-----7--9--5------------------|
--5--5--7--5------         x--| palm mute   R-> let it ring
--5--5--7--3------------------|
--3---------------------------| x4

-----------------------------------------------------------------|
-----------------------------------------------------------------|
----------x-x-7---x-x-9--x-x-5--R--------------------------------|
--x-x-5---x-x-5---x-x-7--x-x-5--R--------------------------------|
--x-x-5---x-x-5---x-x-7--x-x-3--R--------------------------------|
--x-x-3----------------------------------------------------------|

                         verse 1 & 2
------------------|
------------------|
-----77-99-55555--|
--55-55-77-55555--|
--55-55-77-33333--|
--33--------------|
     corus
Tap to rate this tab
# A B C D E F G H I J K L M N O P Q R S T U V W X Y Z