Song name
# A B C D E F G H I J K L M N O P Q R S T U V W X Y Z

Broken Social Scene - Lovers Spit tab

Title:  'Lover's Spit'
Artist: Broken Social Scene
Album: You Forgot It In People
Tabbed by Jorge Díaz (j_diaz_s@yahoo.com)


     E A D G B E

C      --x-3-2-0-1-0--|
Fmaj9  --1-0-3-0-1-0--|
Cmaj9  --3-2-0-0-1-0--|



 Intro: (x2)

   C           Fmaj9      Fmaj9      Gmaj9
E ---0-----0-----0-----0----0-----0------------|
B ---1-----1-----1-----1----1-----1----0-----0-|
G ---0--0--0-----0--0--0----0--0--0----0--0--0-|
D ------2-----------3----------3----------0----|
A -3----3-----------0----------0----------2----|
E -------------1---(1)----1---(1)----3---(3)---|


 Verse 1: (0:29)

C            Fmaj9                       Fmaj9  Gmaj9
  All these people drinking lover's spit
C                      Fmaj9                   Fmaj9  Gmaj9
  They sit around and clean their face with it
C                  Fmaj9                        Fmaj9  Gmaj9
  And they listen to teeth to learn how to quit
C            Fmaj9               Fmaj9  Gmaj9
  tied to a night they never met


 Chorus: (1:17)

               C
You know it's time
      Fmaj9    Fmaj9              Gmaj9
that we grow old and do some shit
          C             Fmaj9
I like it all that way
          Fmaj9         Gmaj9
I like it all that way


 Verse 2: (1:44)


   Play during Verse 2:

  E ---5---5-----5---5--|
  B -----5---------5----|
  G -5-------(5)--------|
  D --------------------|
  A --------------------|
  E --------------------|

C            Fmaj9                      Fmaj9  Gmaj9
  All these people drinking lover's spit
C             Fmaj9                  Fmaj9  Gmaj9
  Swallowing words while giving head
C      Fmaj9                              Fmaj9  Gmaj9
  And listen to teeth to learn how to quit
C            Fmaj9                   Fmaj9  Gmaj9
  take some hands and get used to it

 
 (2:33)

   C                    Fmaj9
E ------------------------------------8-7-|
B -5-6-8--5-6-8--5-6----5-6-8--5-6-8------|
G ----------------------------------------|
D ----------------------------------------|
A ----------------------------------------|
E ----------------------------------------|

   Fmaj9                Gmaj9
E ------------------------------------8-7-|
B -5-6-8--5-6-8--5-6----5-6-8--5-6-8------|
G ----------------------------------------|
D ----------------------------------------|
A ----------------------------------------|
E ----------------------------------------|


 (2:58)

   Fmaj9        Gmaj9
E --------------------------|
B ----1-0--1-0----1-0--1-0--|
G --0-----------0-----------|
D --------------------------| x2
A --------------------------|
E --------------------------|



 (3:12)

C            Fmaj9                        Fmaj9  Gmaj9
  All these people drinking lover's spit
C                      Fmaj9                    Fmaj9  Gmaj9
  They sit around and clean their face with it
               C          Fmaj9   Fmaj9               Gmaj9
You know it's time, that we grow old and do some shit
          C             Fmaj9        Fmaj9         Gmaj9       (Fmaj9)
I like it all that way,    I like it all that way   (I like it all that way)



 Outro: (4:01)

   Fmaj9               Fmaj9
E ----------------------------------|
B -1-0--1-0--1-0--1-0---------------|
G ------------------------0h2-0h2-2-|
D --------------------0h2-----------| x4
A ----------------------------------|
E ----------------------------------|

 (4:26)

   Fmaj9     Fmaj9
E ---------------------|
B -----1-----3-----5-3-|
G -0h2---0h2---0h2-----|
D ---------------------| [ Repeat till the end ]
A ---------------------|
E ---------------------|
Tap to rate this tab
# A B C D E F G H I J K L M N O P Q R S T U V W X Y Z