Song name
# A B C D E F G H I J K L M N O P Q R S T U V W X Y Z

Brontide - Jura tab

This tab is just for the riff that closes the song before the ambient ending, as soon as
I heard it I knew I wanted to figure it out, so I thought I'd share it with you guys.
Once again you'll need an octave pedal down 1 for this, I've been using the EH 
Multiplexer which does the job nicely. It's a little tricky getting the speed down and keeping the
accuracy, but once you're familiar with the riff just play along to the track and it'll 
come together. Enjoy!


e|------------------------------------------------------------------------------|
b|------------------------------------------------------------------------------|
g|------------------------------------------------------------------------------|
d|----------7--4---------7--4---------------------7--4----------7--4------------|
a|-------5-------------5------------7----------5--------------5-------7-6-5-----|
E|--5h7-----------5h7----------5h7-------5h7------------5h7---------------------|

e|-----------------------------------------------------------------|
b|-----------------------------------------------------------------|
g|-----------------------------------------------------------------|
g|-----------------------------------------------------------------|
d|-----------------------4p0----2p0-----------4-----4----4---------|
a|-------2p0-----4p0---------------------2------5-----5----5-------|
E|--0h3-------3-------3-------3-------3-----------6-----6----6-----|

End of riff

e|--------------7----------|
b|--------------7----------|
g|--------------7- --Let---|
d|--4-----------7---Ring---|
a|----5---------9----------|
E|------6-------7----------|

I'm 100% this is right, unfortunately I haven't put the time into trying to figure out
all the loops that set up this song.
Tap to rate this tab
# A B C D E F G H I J K L M N O P Q R S T U V W X Y Z