Song name
# A B C D E F G H I J K L M N O P Q R S T U V W X Y Z

Brooke Duff - Till The End tab

http://illegalmusik.co.nz/2012/08/27/brooke-duff-till-the-end/

Brooke Duff - Till The End

INTRO: same as verse
VERSE: Chords pattern: 5,6,4
Rhythm:
e|---------------------|
B|---------------------|
G|--8----10----6-------| x repeat
D|--8----10----6-------|
A|--6----8-----4-------|
E|---------------------|

LEad:
e|-------------------------------------------|
B|-------------------------------------------|
G|-12-12-12-12--12-13-13-13-13--13-9-9-9-9-9-| x repeat
D|-------------------------------------------|
A|-------------------------------------------|
E|-------------------------------------------|

PRE-CHORUS: Chords pattern
rhythm:
e|---------------------|
B|---------------------|
G|--8----10----6-------| x repeat
D|--8----10----6-------|
A|--6----8-----4-------|
E|---------------------|

CHORUS: Chords pattern: 1,5,6,4
rhythm:
e|------------------------|
B|------------------------|
G|--------8----10----6----| x repeat
D|---6----8----10----6----|
A|---6----6----8-----4----|
E|---4--------------------|

VERSE: Chords: 5,6,4
rhythm:
e|---------------------|
B|---------------------|
G|--8----10----6-------| x repeat
D|--8----10----6-------|
A|--6----8-----4-------|
E|---------------------|

LEad:
e|-----11----------------|
B|----9--9---------------|
G|--10-------------------| x repeated throughout
D|-----------------------|
A|-----------------------|
E|-----------------------|

[CHORUS]

BRIDGE: CHords: 5,6,4 (same as verse)
LEad_1:Rhythm
e|-------------------------------------------|
B|-------------------------------------------|
G|-12-12-12-12--12-13-13-13-13--13-9-9-9-9-9-| x repeated
D|-------------------------------------------|
A|-------------------------------------------|
E|-------------------------------------------|

LEad Break:
e|--11-11-----------------------------------------|
B|--------13-13-11-11-----------------------------|
G|----------------------13-13-12-12b^r-10---------|
D|----------------------------------------13------|
A|------------------------------------------------|
E|------------------------------------------------|

e|---------------------------------------------|
B|---------------------------------------------|
G|-10-10---------------------------------------|
D|-------13-13-10-10---------------------------|
A|----------------------13-13------------------|
E|---------------------------------------------|

e|----------------------------------------------------------------------------------11----11-13--|
B|----------------------------------------------------------------11----11-13-11-13----13--------|
G|----------------------------------------------10----10-13-10-13----13--------------------------|
D|----------------------------10----10-13-10-13----13--------------------------------------------|
A|----------11----11-13-11-13----13--------------------------------------------------------------|
E|-13-11-13----13--------------------------------------------------------------------------------|

PRE-CHORUS: Chords pattern
Rhythm:
e|---------------------|
B|---------------------|
G|--8----10----6-------|
D|--8----10----6-------|  x repeated
A|--6----8-----4-------|
E|---------------------|

CHORUS: Chords pattern: 1,5,6,4
Rhythm:
e|------------------------|
B|------------------------|
G|--------8----10----6----|  x repeated
D|---6----8----10----6----|
A|---6----6----8-----4----|
E|---4--------------------|
Tap to rate this tab
# A B C D E F G H I J K L M N O P Q R S T U V W X Y Z