Brooks And Dunn - My Maria tab

My Maria
Brooks And Dunn
Tuning:Drop D

Intro
e|---------------x-----x-----------------------------------------------------|
B|---------------x-----x-----------------------------------------------------|
G|---------------x-----x-----------------------------------------------------|
D|---------------x--2--x-----------------------------------------------------|
A|---------0--0--x--0--x--5--5----------0------------------------------------|
E|-0--2/4-----0--x-----x--5--5--0--2/4-----2/4-------------------------------|

e|----x-----x----------------------------------------------------------------|
B|----x-----x----------------------------------------------------------------|
G|----x-----x----------------------------------------------------------------|
D|----x--2--x----------------------------------------------------------------|
A|-0--x--0--x--5--5----------0-------0---------------------------------------|
E|-0--x-----x--5--5--0--2/4-----2/4--0---------------------------------------|

If this sounds too low, try a capo on the first fret

Any questions, fixes, or comments? Email me at ptrichy@glasswalls.com
Tap to rate this tab
 
# A B C D E F G H I J K L M N O P Q R S T U V W X Y Z