Song name
# A B C D E F G H I J K L M N O P Q R S T U V W X Y Z

Brooks Garth - The Cowboy Song tab

the cowboy song is garth at his best... naturally.

intro-
  D                   A
---0---------3/2------------------------3/2-----0/2----
---3-------------3----2------3/2------------3----------
---2------------------2----------2---2--------2--------
---0----0-------------2------------0-------------------
----------------------0---0----------------------------
-------------------------------------------------------




D                      D
Pushing horns weren't easy like 
    G              D
the movies said it was
      D               D 
and i don't recall no dance hall girls
   A                A
or hotel rooms with rugs
D                     D
you worked hot and tired and nasty, 
          G              D
rode your ponies head too low
    D                             Asus4
and there were all the nights you couldn't sleep
G                 G
cuz it was too damn cold
              D          A        D
and we'd sing strawberry roan and little joe


    (same chords throughout song)

  "solo" (i think)

---------7------------------------------------------------------
-------7------10---7---10---8/7---------------------------------
-----7--------------------------7-------------------------------
---7------------------------------7-----------------------------
------------------------------------7--------9/7--7/9-----------
----------------------------------------------------------------
Tap to rate this tab
# A B C D E F G H I J K L M N O P Q R S T U V W X Y Z