Song name
# A B C D E F G H I J K L M N O P Q R S T U V W X Y Z

Brother Ali - Here tab

Brother Ali - Here (sampled Michael Andrews - just a thought)

the majority of the song is played using the Dm chord

E|-----------5---------|-----------5-----------| 
A|---------------5-----|---------------4-5-----|
D|---------------------|-----------------------|
G|-7-7-7-7-7---7---7---|-7-7-7-7-7---7-----7---|
B|-6-6-6-6-6---6---6---|-6-6-6-6-6---6-----6---|
e|-5-5-5-5-5---5---5---|-5-5-5-5-5---5-----5---|

theres also a little chord change whcich changes to A7

E|-5---------------5----------|
A|----7-7-7-7-7-7---5h7-7-----|
D|----5-5-5-5-5-5-------5-----|
G|----6-6-6-6-6-6-------6-----|
B|----------------------------|
e|----------------------------|

Chords: 
     Dm       A7
E|---5--------5----|
A|---5--------7----|
D|---7--------5----|
G|---7--------6----|
B|---6--------5----|
e|---5--------5----|
Tap to rate this tab
# A B C D E F G H I J K L M N O P Q R S T U V W X Y Z