Song name
# A B C D E F G H I J K L M N O P Q R S T U V W X Y Z

Brown James - Sex Machine tab

Help us improve GuitareTab! Take a short survey!
James Brown
Sex Machine

Transcript by
Nicolai Pedersen

standard tuning

Intro
     e--13-13-13-13-13-13-13-13--------|
     b--13-13-13-13-13-13-13-13--------|
     g--x--x--x--x--x--x--x--x---------|
     d--x--x--x--x--x--x--x--x---------|
     a---------------------------------|
     e---------------------------------|

Part 1
     e--5-5--7--5---|
     b--5-5--5--5---|
     g--x-x--x--x---|        Play until the bridge
     d--------------|
     a--------------|
     e--------------|

Part 2/bridge
     e--13-13--11-11--9--10--11-------|
     b--13-13--11-11--9--10--11-------|
     g--x--x---x--x---x--x---x--------|       Play until Part 3 starts
     d--x--x---x--x---x--x---x--------|
     a--------------------------------|
     e--------------------------------|

     e--5-5-5-5-5-5-5------------|
     b--5-5-5-5-5-5-5------------|
     g--x-x-x-x-x-x-x------------|           This is played just after the
     d---------------------------|           bridge finish.
     a---------------------------|
     e---------------------------|

Part 3
     e--5-5--7--5--------------|
     b--5-5--5--5--------------|
     g--x-x--x--x--------------|      Play until the outro
     d-------------------------|
     a-------------------------|
     e-------------------------|

ending
     e--5-5-5-5-5-5-5---|
     b--5-5-5-5-5-5-5---|
     g--x-x-x-x-x-x-x---|        Play this in the end
     d------------------|
     a------------------|
     e------------------|


 Now this is a weary easy song but you do require some funk experience to
play it. good luck
Related for Sex Machine tab