Song name
# A B C D E F G H I J K L M N O P Q R S T U V W X Y Z

Brubeck Dave - Take 5 tab

-------------------------------------------------------------------------------
Tabbed by: Adam Warburton
Tuning: E,A,D,G,B,E

e|---------------------------------------------------------------------------|
B|---8---8p7---7-------------------------------------------------------------|
G|---7---7-----7-------------------------------------------------------------|
D|---9---9p7---7-------------------------------------------------------------|
A|-7---7-----9---------------------------------------------------------------|
E|---------------------------------------------------------------------------|

e|---------------------------------------------------------------------------|
B|---8---8----------------8------------3---3---3-----------------------------|
G|---9---9---5---7---7----7---5---5----5---3---3---4-------------------------|
D|---8---8---5---7---7----9---5---5----4---4---4---3-------------------------|
A|-----------0---0---0--7-----0---0--5-------------5-------------------------|
E|-8---8---5---7---7--------5---5--------3---3---3---------------------------|

e|---------------------------------------------------------------------------|
B|---8---8----------------8-----------3---3---3------------------------------|
G|---9---9---5---7---7----7---5---5---5---3---3---8--------------------------|
D|---8---8---5---7---7----9---5---5---4---4---4---7--------------------------|
A|-----------0---0---0--7-----0---0-5-------------9--------------------------|
E|-8---8---5---7---7--------5---5-------3---3---7----------------------------|


It still needs some work. but you can try this. Gabriela probably puts loads of her 
triplets in there. But i haven't tabbed that. just the basic chord structure.

===============================================================================
Tap to rate this tab
# A B C D E F G H I J K L M N O P Q R S T U V W X Y Z