Guitaretab - guitar tabs
Song name
# A B C D E F G H I J K L M N O P Q R S T U V W X Y Z

Bruce Mathiske - Somewhere Over The Rainbow tab

------------------------------------------------------------------------------
              Somewhere Over The Rainbow- Bruce Mathiske
------------------------------------------------------------------------------
Tabbed by: Leo_Monkey
Email:

Tuning:Eadgbe




e|-------0-----0-----0-----0-----0-----0-----0-----0-----5---------5------5*-|
B|----1-----0-----------0-----3-----2-----1-----0---------------5------5*----|
G|-0*----0*----0*-2--0*----0*----0*----0*----0*----0*--------5------5*-------|
D|----2*----2*----2*----2*----3*----3*----3*----3*--------5------5*----------|
A|------------------------------------------------------------5*-------------|
E|---------------------------------------------------------5*----------------|

e|-3---------3------3*---------0-----0-----0-----0-----2-----2-----2-----2---|
B|--------3------3*---------1-----0-----------1-----4-----3-----2-----3------|
G|-----4------4*---------0*----0*----0*-2-0*----0*----2*----2*----2*----2*--|
D|--3------3*---------------2*----2*----2*----2*----4*----4*----4*----4*-----|
A|------3*-------------------------------------------------------------------|
E|---3*----------------------------------------------------------------------|
[ Tab from: http://www.guitaretab.com/b/bruce-mathiske/179278.html ]
e|-7---------7------7*----------7p5----------------------3------3*-----------|
B|--------7------7*------------------6p5--------------3------4*--------------|
G|-----7------7*----------7*-5*--------------------4------4*-----------------|
D|--7------7*----------------------5*------------------3*--------------------|
A|------7*------------------------------5*----------3*-----------------------|
E|---7*------------------------------------5*-4*-3*--------------------------|

e|--------------8-----7--------------8\----------------5------3--------------|
B|-1-1----------8-----5---------12*--9\---1-----1------7------3-------3------|
G|-2---2--------7-----7--12*---------8\-----2----------6------2-------3------|
D|-2------------------5------7*------9\-------2------5----------------3------|
A|-3-----3-2-0-----------------------8\------------6------0---3---------5\4\3|
E|----------------0-----------------------1----------------------0h2/3-------|

e|---------------------------------------------------------------------------|
B|-1-------1-1----6---6---5--------5--/6---3---------------5~----------------|
G|-3-------2-2----5---5---4----5-7----/6---5-5---5---5-----4~----------------|
D|-2-------2-2----6---6---5----5------/5---4---4-----4-----3~----------------|
A|------------------------------------/6---5---------------4~----------------|
E|---2~--1------4---4-----3----5-------------------4-------------------------|