Song name
# A B C D E F G H I J K L M N O P Q R S T U V W X Y Z

Bruce Springsteen - Tenth Avenue Freeze Out tab

intro
e|---12----13-13----10----8-8----15----13---|
B|---13----15-15----10----8-8----15----15---|
G|---12----14-14----10----9-9----15----15---|
D|------------------------------------------|
A|------------------------------------------|
E|------------------------------------------|

verse
|-------------|
|---9/10--10--| 8x
|---9/10--10--|
|---9/10--10--|
|---7/8---8---|
|-------------|

|----9/10--10--|-------|------------|-------|
|---10/11--11--|---%---|---9/10--10-|---%---|
|----9/10--10--|-------|---9/10--10-|-------|
|--------------|-------|---9/10--10-|-------|
|--------------|-------|---7/8----8-|-------|
|--------------|-------|------------|-------|

|---11/12--12--|-------|----9/10--10-|-------|
|---12/13--13--|---%---|---10/11--11-|---%---|
|---11/12--12--|-------|----9/10--10-|-------|
|--------------|-------|-------------|-------|
|--------------|-------|-------------|-------|
|--------------|-------|-------------|-------|

|--------------|-------|
|---9/10--10---|---%---|
|---9/10--10---|-------|
|---9/10--10---|-------|
|---7/8----8---|-------|
|--------------|-------|
Tap to rate this tab
 
# A B C D E F G H I J K L M N O P Q R S T U V W X Y Z