Guitaretab - guitar tabs
Song name
# A B C D E F G H I J K L M N O P Q R S T U V W X Y Z

Bruce Springsteen - Land Of Hope And Dreams tab

Land of Hope and Dreams - Bruce Springsteen (Live Version)

Capo @ the 3rd fret


4x G                                                C
||------------------------|------------------------|-----------------------|-------------------------||
||------3-------1----0----|-----0-------1----0-----|-----1-------0----1----|-----1-------0-----------||
||*----------0------------|--0-------0----------0--|----------0------------|--0-------0-------2--0--*||
||*-----------------------|------------------------|-----------------------|------------------------*||
||------------------------|------------------------|--3--------------------|-------------------------||
||---3--------------------|------------------------|-----------------------|-------------------------||

          G                                   C
Grab your ticket and your suitcase, thunder's rollin' down the track
         G                                              Em
You don't know where you're goin', now, but you know you won't be back
      D                                 C
Well, darlin' if you're weary, put your head upon my chest
      D                          C               D
We'll take what we can carry and we'll leave the rest
      G                                             C       Em
Well, big wheels roll through fields where sunlight streams
      C            D                       G   C   G   C
Well, meet me in a land of hope and dreams

G                                C
Well, I will provide for you and I'll stand by your side
       G                               Em
You'll need a good companion, now, for this part of the ride
      D                              C
Well, leave behind your sorrows, let this day be the last
      D                                 C                 D
Well, tomorrow there'll be sunshine and all this darkness past
      G                                             C       Em
Well, big wheels roll through fields where sunlight streams
      C            D                       G   C   G   C
Well, meet me in a land of hope and dreams


      Em
Well, this train, carries saints and sinners
D
This train, carries losers and winners
G
This train, carries whores and gamblers
C
This train, carries lost souls
Em
This train, dreams will not be thwarted
D
This train faith will be rewarded
G
This train, hear the steel wheels singin'
C
This train, bells of freedom ringin'


| G  | G  | C  | C  | G  | G  | C  | C  | G  | G  | C  | C  | G  | G  | C  | C  |
(Sax solo)
[ Tab from: http://www.guitaretab.com/b/bruce-springsteen/44237.html ]
      Em
Well, this train, carries saints and sinners
D
This train, carries losers and winners
G
This train, carries whores and gamblers
C
This train, carries lost souls
Em
This train, carries broken hearted
D
This train, thieves and sweet souls departed
G
This train, carries fools carries kings yeah
C
All aboard
      Em
I say this rain, dreams will not be thwarted
D
This train, faith will be rewarded
G
This train, hear the steel wheels singin'
C
This train, bells of freedom ringin'

| G  | G  | C  | C  | G  | G  | C  | C  |

      Em
Well, this train, carries saints and sinners
D
This train, carries losers and winners
G
This train, carries whores and gamblers
C
This train, carries lost souls
      Em
I say this train, carries broken hearted
D
This train, thieves and sweet souls departed
G
This train, carries fools carries kings yeah
C
This train, all aboard
      Em
I say this rain, dreams will not be thwarted
D
This train, faith will be rewarded
G
This train, hear the steel wheels singin'
C
This train, bells of freedom ringin'

| G  | G  | C  | C  | G  | G  | C  | C  | G  | G  | C  | C  | G  | G  | C  | C  |
| G  | G  | C  | C  | G  | G  | C  | C  | G  | G  | C  | C  | G  | G  | C  | C  | G

            Em
I say, this train
             D
Come on this train
             G
Come on this train
C
 Let me see your hands
         Em
Oh, this train
             D
Come on this train
             G
Come on this train

C .....

Come on, come on, come on, come on

This train


The mandolin parts

capo @ the third fret

First two bars

e 666-888---------6---8----10-------666---888--------6-----8----6-|
B -666-666---------6---6-----6-------666---666--------6-----6----6-|
G 777-777---------7---7-----7-------777---777--------7-----7----7-|
D -----------------------------------------------------------------|
A -----------------------------------------------------------------|
E -----------------------------------------------------------------|

Second two bars

e 11 11-11----10-10-10---8-8-8----10-10-10-----11-|
B--8---8--8-----8--8--8---8-8-8-----8--8--8------8-|
G--8---8-8------8--8--8---8-8-8-----8--8--8------8-|
D--------------------------------------------------|
A--------------------------------------------------|
E--------------------------------------------------|

e--11-11-11----10-10-10-----8-8-8----10-10-10----8-|
B--8---8--8-----8--8--8-----8-8-8-----8--8--8----8-|
G--8---8--8-----8--8--8-----8-8-8-----8--8--8----8-|
D--------------------------------------------------|
A--------------------------------------------------|
E--------------------------------------------------|
Related for Land Of Hope And Dreams tab