Bruce Springsteen - Radio Nowhere tab

I couldnt find any good tabs anywhere so i tried making my own.


intro: Guitar 1:distorted (main riff)
        F#           D      A               E
     e  ------------------------------------------------|
     B  ------------------------------------------------|
     G  ----------2---------------2---------------------|
     D  -------4-----0---------2-----2------------------|
     A  ----4---------------0---------------------------|
     E  -2----------------------------------4-----------|   x3

     Guitar 2: Played over the third time the riff is played.
     
     e---------------------------10--9------------------|
     B-12-----12--10--12----12----------12--------------|
     G--------------------------------------------------|
     D--------------------------------------------------|
     A--------------------------------------------------|
     E--------------------------------------------------|

     pretty much the same riff the whole way through.
Tap to rate this tab
 
# A B C D E F G H I J K L M N O P Q R S T U V W X Y Z