Song name
# A B C D E F G H I J K L M N O P Q R S T U V W X Y Z

Brujeria - Division Del Norte tab

This is the first tab Im submitting and I'm sure it that the whole song is correct


Intro:Verse 1

A|-------------------------------------------| 
E|-------------------------------------------|
C|-------------------------------------------|
G|-------------------------------------------|
D|--7-7-7-7-7-7-7-10-10-10-6-6-6-6/7---------|
A|-------------------------------------------|
SPM . . . . . . . . . . . . . . . . .  
A|-------------------------------------------|
E|-------------------------------------------|
C|-------------------------------------------|
G|-------------------------------------------|
D|--7-7-7-7-7-7-7-10-10-10-6-6-6-6/7---------|
A|-------------------------------------------|              
PM  . . . . . . . . . . . . . . . . .                       
                                                    Repeat 2x
A|-------------------------------------------|             
E|-------------------------------------------|            
C|-------------------------------------------|
G|-------------------------------------------|
D|--7-7-7-7-7-7-7-10-10-10-6-6-6-6/7---------|
A|-------------------------------------------|
PM  . . . . . . . . . . . . . . . . .  

A|-------------------------------------------|
E|-------------------------------------------|
C|-------------------------------------------|
G|-------------------------------------------|
D|--7-7-7-7-7-7-7-7-7-7-7-7------------------|
A|-------------------------------------------|
PM  . . . . . . . . . . . .  


Verse 2:Chorus

A|-------------------------------------------|
E|-------------------------------------------|
C|-------------------------------------------|
G|--7-7-7-7-7-7-7-10-10-10-6-6-6-6/7---------|
D|--7-7-7-7-7-7-7-10-10-10-6-6-6-6/7---------|
A|--7-7-7-7-7-7-7-10-10-10-6-6-6-6/7---------|
Pancho Villa no murio!

A|-------------------------------------------|    
E|-------------------------------------------|
C|-------------------------------------------|
G|--7-7-7-7-7-7-7-10-10-10-6-6-6-6/7---------|
D|--7-7-7-7-7-7-7-10-10-10-6-6-6-6/7---------|
A|--7-7-7-7-7-7-7-10-10-10-6-6-6-6/7---------|
                                                    Repeat 2x

A|-------------------------------------------|
E|-------------------------------------------|
C|-------------------------------------------|
G|--7-7-7-7-7-7-7-10-10-10-6-6-6-6/7---------|
D|--7-7-7-7-7-7-7-10-10-10-6-6-6-6/7---------|
A|--7-7-7-7-7-7-7-10-10-10-6-6-6-6/7---------|


A|----------------------------------------|
E|----------------------------------------|
C|----------------------------------------|
G|--7-7-7-7-7-7-7-5-5-5-6-6-6-6-----------|
D|--7-7-7-7-7-7-7-5-5-5-6-6-6-6-----------|
A|--7-7-7-7-7-7-7-5-5-5-6-6-6-6-----------|



Verse 3

A|----------------------------------------|
E|----------------------------------------|
C|----------------------------------------|
G|--7-10-7-7-7-10-7--7-6-6-7-6-6-7-6------|
D|--7-10-7-7-7-10-7--7-6-6-7-6-6-7-6------|
A|--7-10-7-7-7-10-7--7-6-6-7-6-6-7-6------|
                                                 Repeat 4x


Verse 3:Outro

A|----------------------------------------|
E|----------------------------------------|
C|----------------------------------------|
G|--7-10-7-7-7-10-7--7-6-6-7-6-6-7-6------|
D|--7-10-7-7-7-10-7--7-6-6-7-6-6-7-6------|
A|--7-10-7-7-7-10-7--7-6-6-7-6-6-7-6------|
                                                Reapeat 8x




So the song is played:

-Verse 1

-Verse 2

-Verse 1

-Verse 2

-Verse 3

-Verse 1

-Verse 2

-Verse 3 8x





Tap to rate this tab
# A B C D E F G H I J K L M N O P Q R S T U V W X Y Z