Song name
# A B C D E F G H I J K L M N O P Q R S T U V W X Y Z

Bryan And Katie Torwalt - I See Heaven tab

Key of G

CHORUS:(X2)
E|-----------10------------10---------7---|
B|-8--10--8------8--10--8------8--10------|
G|----------------------------------------|
D|----------------------------------------|
A|----------------------------------------|
E|----------------------------------------|

E|------------10------------10--8--7------|
B|--8--10--8------8--10--8----------------|
G|----------------------------------------|
D|----------------------------------------|
A|----------------------------------------|
E|----------------------------------------|
Tap to rate this tab
 
# A B C D E F G H I J K L M N O P Q R S T U V W X Y Z