Song name
# A B C D E F G H I J K L M N O P Q R S T U V W X Y Z

Bryan Greenberg - Neverland tab

-------------------------------------------------------------------------------
			     NEVERLAND - Bryan Greenberg
-------------------------------------------------------------------------------
Tabbed by:Tomas Wright
Email:tomaswright@hotmail.co.uk

Tuning: Standard

intro

e|-------------------------------------------------------|
B|-----------------3p2-2-2h3p2------------------2-5-3p0--|
G|-------------2----------------------------2------------|
D|---4----4-----4-----------------4----4------4----------|  x2
A|-2----2---0-------------------2----2---0---------------|
E|-------------------------------------------------------|

verse 1

e|---2--2--------------2--2-----3-------2-2-------------2-0-2-0-2-|
B|---3--3--3-2-2p0-----3--3-3/5---0-0---3-3-3-2-2p0-----3-3-3-3-3-|
G|---4--4----------2---4--4-------------4-4---------2---4-4-4-4-4-|
D|---4--4--------------4--4-------------4-4-------------4-4-4-4-4-|
A|-2-2--2------------2-2--2-----------2-2-2-----------2-2-0-2-0-2-|
E|----------------------------------------------------------------|

fill

e|---------2-2-----------------2-2-----3--------------------------|
B|---3-2p0-3-3-2p3h2-0---3-2p0-3-3-3/5---0-0----------------------|
G|---------4-4-----------------4-4--------------------------------|
D|---------4-4-----------------4-4--------------------------------|
A|-2-------2-2---------2-------2-2--------------------------------|
E|----------------------------------------------------------------|

verse 2

e|---2--2--------------2--2-----3-------2-2-------------2---------|
B|---3--3--3-2-2p0-----3--3-3/5---0-0---3-3-3-2-2p0-----3---------|
G|---4--4----------2---4--4-------------4-4---------2---4---------|
D|---4--4--------------4--4-------------4-4-------------4---------|
A|-2-2--2------------2-2--2-----------2-2-2-----------2-2---------|
E|----------------------------------------------------------------|


chorus


e|--2-x-2-2-x-2-3-x-3-5-x-5---|
B|--3-x-3-2-x-2-3-x-3-5-x-5---|
G|--4-x-4-3-x-3-4-x-4-6-x-6---|
D|--4-x-4-4-x-4-5-x-5-7-x-7---|
A|--2-x-2-4-x-4-5-x-5-7-x-7---|
E|--------2-x-2-2-x-3-5-x-5---|

e|--2-x-2-2-x-2-3-x-3-5-x-5-5-5-|
B|--3-x-3-2-x-2-3-x-3-5-x-5-5-5-|
G|--4-x-4-3-x-3-4-x-4-6-x-6-6-6-|
D|--4-x-4-4-x-4-5-x-5-7-x-7-7-7-|
A|--2-x-2-4-x-4-5-x-5-7-x-7-7-7-|
E|--------2-x-2-2-x-3-5-x-5-5-5-|

Then he just repeats these chords for the bridge, with the band playing over him, quite 
to work out but I think it is this


e|-2-2--2-2-2-2-2--2-2-2-0-0--0-0-0-1-1--1-1-1-1-1-1-1-1-1-1-------|
B|-3-3--3-3-3-1-1--1-1-1-3-3--3-3-3-0-0--0-0-0-0-0-0-0-0-0-0-------|
G|-4-4--4-4-4-2-2--2-2-2-1-1--1-1-1-0-0--0-0-0-0-0-0-0-0-0-0-------|
D|-4-4--4-4-4-0-0--0-0-0-0-0--0-0-0-0-0--0-0-0-0-0-0-0-0-0-0-------|
A|-2-2--2-2-2-0-0--0-0-0-2-2--2-2-2-2-2--2-2-2-2-2-2-2-2-2-2-------|
E|----------------------------------3-3--3-3-3-3-3-3-3-3-3-3-------|

Do that until you go back to the chorus then end

e|------------------------------------------------------2-|
B|-----------------3p2-2-2h3p2------------------2-5-3p0-3-|
G|-------------2----------------------------2-----------4-|
D|---4----4-----4-----------------4----4------4---------4-|
A|-2----2---0-------------------2----2---0--------------2-|
E|--------------------------------------------------------|

Hope you like it, please rate/comment
Tap to rate this tab
 
# A B C D E F G H I J K L M N O P Q R S T U V W X Y Z