Song name
# A B C D E F G H I J K L M N O P Q R S T U V W X Y Z

Buffalo Killers - Let It Ride tab

Help us improve GuitareTab! Take a short survey!
Intro/Chorus:
e-------------------------------------------13-13-13-13-13------------------|
b-------------------------------------------13-13-13-13-13------------------|
g--------10-------13-13-13-13-13------------10-10-10-10-10------------------|
d--10h12----12p10-13-13-13-13-13---10-12-10---------------------------------|
a-----------------11-11-11-11-11--------------------------------------------|
e---------------------------------------------------------------------------|

Verse:
e---------------------------------------------------------------------------|
b---------------------------------------------------------------------------|
g---------------------------------------------------------------------------|
d--3-6-6--6--6-----3-6-6--6--6-----3-6-6--6--6-----3-6-6--6--6--------------|
a--3-6-6--6--6-----3-6-6--6--6-----3-6-6--6--6-----3-6-6--6--6--------------|
e--1-4-4--4--4-----1-4-4--4--4-----1-4-4--4--4-----1-4-4--4--6--------------|

Soloing: A(flat) penatonic
Related for Let It Ride tab