Song name
# A B C D E F G H I J K L M N O P Q R S T U V W X Y Z

Buffalo Springfield - For What Its Worth tab

-------------------------------------------------------------------------------
			     FOR WHAT IT'S WORTH (FILLS AND SOLOS ONLY) - Buffalo Springfield
-------------------------------------------------------------------------------
Tabbed by: Jon B
Email: felagund50@hotmail.com

I noticed a lot of great tabs for this song, both for chords and the main riff, but no
tackled the fills and solos. Here's my shot at it. Note that the intro, first verse, and
chorus do not contain any fills -- merely the harmonics, main riff, and chords.

Questions and comments are welcome! Enjoy!

Tuning: Standard

Second Chorus: after "Getting so much resistance/from behind"
e|--------------------------------------------0------------------------------0-------------------|
B|---9---7p5--------------------------9---9---5------8-10b12---------9---9---5-------------------|
G|--9--------7---6-------------------9---9----6----4/---------------9---9----6----11b12-b12-11-9-|
D|-9---------------9-7--5b-5b-5b----9---9-----7--------------------9---9-----7-------------------|
A|-----------------------------------------------------------------------------------------------|
E|-----------------------------------------------------------------------------------------------|

Third Chorus: after "Mostly say/Hooray for our side"
e|-----------------------------------------------------------------------------------------------|
B|---9---7-5----------------------------8-10b12-(12)-12b10-10-10-8-10p8--8-----------------------|
G|--9--------7---6--------------------9--------------------------------9---9--7-9-7--------------|
D|-9---------------9-7-7b-7b-7b-7b--------------------------------------------------10-9-(9)-----|
A|-----------------------------------------------------------------------------------------------|
E|-----------------------------------------------------------------------------------------------|

These three fills follow each line of the last verse, respectively.
e|---After Line 1------------------After Line 2-------------------After Line 3--|
B|---------------------------------------------------------------8-10b12-b12----|
G|-----------------------------------------------------------8/9----------------|
D|-7h8-8p7-8p7-7b-7b-7b-7b------------------------------------------------------|
A|------------------------------6h7-(7)-6h7-6h7-(7)-6h7-------------------------|
E|------------------------------------------------------------------------------|
(strike times while crescendoing)

Fourth Chorus and Outro: after "the men come/and take you away"
e|-----------------------------------------------------------------------------------------------|
B|---9---7-5----------------------------9-----8-10-12--b12(12)r10p8--b12-b12-b12r10p8------------|
G|--9--------7---/6-/6-/6--------------9----9----------------------------------------------------|
D|-9----------------------7b-7b-7b----9----------------------------------------------------------|
A|-----------------------------------------------------------------------------------------------|
E|-----------------------------------------------------------------------------------------------|

e|-11b12-12r11-----------------------------------------------------------------------------------|
B|--------------12-10b11-12-10p8---10b-10b-10b-10b-10b8------------------------------------------|
G|------------------------------9----------------------9-----------------------------------------|
D|-----------------------------------------------------------------------------------------------|
A|-----------------------------------------------------------------------------------------------|
E|-----------------------------------------------------------------------------------------------|

e|-------------------------------------------10b12-10b12-----------------------------------------|
B|-10b-12-10b8----10b12-10-8----10b12-10b12------------------------------------------------------|
G|------------9-------------9--------------------------------------------------------------------|
D|-----------------------------------------------------------------------------------------------|
A|-----------------------------------------------------------------------------------------------|
E|-----------------------------------------------------------------------------------------------|

e|----15-17b-17b-17bp15----15----------15h17-17b-17b-17bp15--------------------------------------|
B|-17------------------17-----17--15h17--------------------17------------------------------------|
G|-----------------------------------------------------------------------------------------------|
D|-----------------------------------------------------------------------------------------------|
A|-----------------------------------------------------------------------------------------------|
E|-----------------------------------------------------------------------------------------------|


| /  slide up
| \  slide down
| h  hammer-on
| p  pull-off
| ~  vibrato
| +  harmonic
| x  Mute note
===============================================================================
Tap to rate this tab
 
# A B C D E F G H I J K L M N O P Q R S T U V W X Y Z