Guitaretab - guitar tabs
Song name
# A B C D E F G H I J K L M N O P Q R S T U V W X Y Z

Built To Spill - Car tab

-----------------------------------------------------------------------------
			     Car  Built to Spill
-----------------------------------------------------------------------------
Tabbed by: Jeff McCall
Email: jeff.mccall.21@gmail.com

Tuning:eBGDAE

Opening riff

e|--------------------------------------------------------------|
B|--------------------------------------------------------------|
G|--------------------------------------------------------------|
D|-----0-1---1-0---------------1-0-1-3---0-1-0------------------|
A|-1-3-----------3---------------------1---------0-1-0-3-0-1-0--|
E|---------1-------3~--1-3~--------------------1----------------|

E|-------------------------------------|
B|-------------------------------------|
G|-------------------------------------|
D|---1h3p1p0---1p0---------------------|
A|-3~--------------3p0---0-1-3-1-0---0-|
E|-----------1---------3-----------3---|

Verse

Bb          F                 Gm                             Gm
You get the car, I'll get the night off, we'll get the chance
  Eb               Bb              F              F
To take the world apart and figure out how it works
Cm           F                  Gm               Gm
Don't let me know what you find out
Bb        F               Gm                     Gm
I need a car, you need a guide, who needs a map
Eb         Bb                F                    F
If I don't die or worse, I'm gonna need a nap
Cm               F                  Gm           Gm
At best I'll be asleep when you get back

Chorus

Bb      F       Gm                     Eb
I wanna see it, when you find out what comets, stars, and moons are all
about
Bb      F         Gm                               Eb
I wanna see their faces turn to backs of heads and slowly get smaller
Bb      F      Eb
I wanna see it now
Bb      F      Eb
I wanna see it now

Breakdown

E|------------------------------|
B|------------------------------|
G|------------------------------|
D|-------1p0--------------------|
A|----------3-1-1-3/5\3--------|
E|-1/3-3----------------1-1/3-3-|

Verse
[ Tab from: http://www.guitaretab.com/b/built-to-spill/191101.html ]
Bb        F             Gm           Gm
I want specifics on the general idea
Eb        Bb                    F      F
I want to think what I should I know
Cm              F                 Gm      Gm
Want you you to do to me what you showed
F       Gm  Cm         Eb
I wanna see movies of my dreams
F       Gm  Cm         Eb
I wanna see movies of my dreams
F       Gm  Cm         Eb
I wanna see movies of my dreams

Chorus

Bb      F       Gm                       Eb
I wanna see it, when you get stoned on a cloudy, breezy desert afternoon
Bb      F       Gm                Eb
I wanna see it, untame itself and break its owner
Bb      F      Eb    Eb
I wanna see it now
Bb      F      Eb    Eb
I wanna see it now

Solo  played with the chorus chords


e|-----------------------------------------------------------------------|
B|-------------------------------------------------------------3~---3~---|
G|------------------------------------------0-0-0-0-2-2-2-2-3~---2~------|
D|-------------3--0----0--1-1-1-0-1h3-3-3-3------------------------------|
A|-1--1--3h5p3------3----------------------------------------------------|
E|-----------------------------------------------------------------------|

e|----------------------------10--------11-10--------13~---10h11p10h11p10h11-|
B|-44h6p4p3h4p33/-11~-10~-----13-11-10-----13-11-10------------------------|
G|--------------3-----------10-----------------------------------------------|
D|---------------------------------------------------------------------------|
A|---------------------------------------------------------------------------|
E|---------------------------------------------------------------------------|

e|--------------------------------------------------------------------------|
B|-11~---11-10--------------------------------------------------------------|
G|-------------10-----------------------------------------------------------|
D|----------------12~~~-----------------------------------------------------|
A|--------------------------------------------------------------------------|
E|--------------------------------------------------------------------------|
Related for Car tab