Guitaretab - guitar tabs
Song name
# A B C D E F G H I J K L M N O P Q R S T U V W X Y Z
Home / B / Buklod / Lea tab

Buklod - Lea tab

Buklod - Lea
tabbed by joshua flores

Note: (capo 6th fret)

Intro:

e-------5-5---------------5-3-2-0-2h3---------------------3-2-0---0h2-------------------5-----5s7-------------------|
B----3--3-3-------3-3-----------------2---------3-3-----3-------3-----3---------3-2---3------------------3-------3--|
G--2--------2---2-------3---------------0-----0-------0-----------------0-----0-----0-------0----------0-------0----|
D-------------0-------0---------------------0-------0-----------------------0------------------------0-------0------|
A-------------------3---------------2-------2-------1---------------------------------------------------------------|
E-----------------------------------------------------------------3-------3-------2-------2--------3-------3--------|

e-----------0-----------|
B-------3-------3-------|
G-----0---0---0---------|
D---0-------------------|
A-1---------------------|
E-----------------------|

[ Tab from: http://www.guitaretab.com/b/buklod/140973.html ]
Verse:
e--------0-------------------0--------------0---------------0----------------0---------------0----------------0------|
B------3---3-------------3------3-------3-------3-------3-------3--------3-------3-------3-------3--------3-------3--|
G----2-------2---2-----0---0--0-------0---0---0-------0---0---0--------0---0---0-------0---0---0--------0---0---0----|
D--0-----------0-----0--------------0---------------0----------------0---------------0----------------0--------------|
A------------------3--------------2---------------1------------------------------------------------------------------|
E------------------------------------------------------------------3---------------2----------------3----------------|

e------------0---------|
B--------0-------0-----|
G------2---2---2-------|
D----2-----------------|
A--0-------------------|
E----------------------|

e--------0-------------------0--------------0---------------0--------------------5-------------------------------------|
B------3---3-------------3------3-------3-------3-------3-------3--3-----2---3---------3p2-3s5-5s7-7-----0-------0-----|
G----2-------2---2-----0---0--0-------0---0---0-------0---0---0--------0---0---0-----------------------0-------7-------|
D--0-----------0-----0--------------0---------------0----------------0---------------0---------------0-------0---------|
A------------------3--------------2---------------1--------------------------------------------------------------------|
E------------------------------------------------------------------3---------------3--------s5--s7-7-------7-----------|

Chorus:
e--------0-------------------0--------------0---------------0------|
B------3---3-------------3------3-------3-------3-------3-------3--|
G----2-------2---2-----0---0--0-------0---0---0-------0---0---0----|
D--0-----------0-----0--------------0---------------0--------------|
A------------------3--------------2---------------1----------------|
E------------------------------------------------------------------|
Related for Lea tab
Advertisement will be closed in 10 seconds