Song name
# A B C D E F G H I J K L M N O P Q R S T U V W X Y Z

Bullet For My Valentine - Scream Aim Fire tab

Scream Aim Fire
Bullet For My Valentine
Scream Aim Fire
Drop D

a lot of people say this song is in d standard,
but it can be played in drop d as well. so, anyone want it in 
D standard, see another tab.

Guitar 1
e)------------------------------------------------------------------------)
B)------------------------------------------------------------------------)
G)------------------------------------------------------------------------)
D)------------------------------------------------------------------------)
A)--13-----12-13---------12-13-15-13-12h13-12-----13-12---------13---12~--)
D)-----000-------000-000----------------------000-------000-000----0------)
       ...       ... ...                      ...       ... ...    .

Guitar 2 (same time as guitar 1)
e)-----------------------------------------------------------)
B)-----------------------------------------------------------)
G)-----------------------------------------------------------)
D)-----------------------------------------------------------)
A)--8-----7-8---------7-8-10-8-7h8-7-----8-7---------8---7~--)
D)----000-----000-000----------------000-----000-000---0-----)
      ...     ... ...                ...     ... ...   .

Guitar 1
e)--------------------------------------)
B)--------------------------------------)
G)--7tp-9tp-10tp-12tp--7tp-9tp-10tp-5tp-)
D)--------------------------------------)
A)--------------------------------------)
D)--------------------------------------)

Guitar 2
e)--------------------------------------)
B)--7tp-9tp-10tp-12tp--7tp-9tp-10tp-5tp-)
G)--------------------------------------)
D)--------------------------------------)
A)--------------------------------------)
D)--------------------------------------)


Guitar 1
e)------------------------------------------------------------------------)
B)------------------------------------------------------------------------)
G)------------------------------------------------------------------------)
D)------------------------------------------------------------------------)
A)--13-----12-13---------12-13-15-13-12h13-12-----13-12---------13---12~--)
D)-----000-------000-000----------------------000-------000-000----0------)
       ...       ... ...                      ...       ... ...    .

Guitar 2 (same time as guitar 1)
e)-----------------------------------------------------------)
B)-----------------------------------------------------------)
G)-----------------------------------------------------------)
D)-----------------------------------------------------------)
A)--8-----7-8---------7-8-10-8-7h8-7-----8-7---------8---7~--)
D)----000-----000-000----------------000-----000-000---0-----)
      ...     ... ...                ...     ... ...   .

Guitar 1
e)--------------------------------------)
B)--------------------------------------)
G)--7tp-9tp-10tp-12tp--7tp-9tp-10tp-5tp-)
D)--------------------------------------)
A)--------------------------------------)
D)--------------------------------------)

Guitar 2
e)--------------------------------------)
B)--7tp-9tp-10tp-12tp--7tp-9tp-10tp-5tp-)
G)--------------------------------------)
D)--------------------------------------)
A)--------------------------------------)
D)--------------------------------------)

Both guitars
e)-------------------------)
B)-------------------------)
G)-------------------------)
D)-0-0-------/////////////-)
A)-0-0-------//PICKSLIDE//-)
D)-0-0-------/////////////-)

Guitar 1
e)---------------------------------------------------)
B)---------------------------------------------------)
G)---------------------------------------------------)
D)--0---------0-----------0-----------0--------------)
A)--0-0-0-0-0-0-0-000-000-0-0-000-000-0-0--13---12~--)
D)--0-0-0-0-0-0-0-000-000-0-0-000-000-0-0-----0------)
      . . . .   . ... ...   . ... ...   .     .


Guitar 2
e)-------------------------------------------------)
B)-------------------------------------------------)
G)-------------------------------------------------)
D)--0---------0-----------0-----------0------------)
A)--0-0-0-0-0-0-0-000-000-0-0-000-000-0-0--8---7~--)
D)--0-0-0-0-0-0-0-000-000-0-0-000-000-0-0----0-----)
      . . . .   . ... ...   . ... ...   .    .

Both guitars
e)-----------------------------------)
B)-----------------------------------)
G)---------------------------------5-)
D)--3-------------3-------------0--5-)
A)--3-3-333-333-3-3-3-333-333-3-0--3-)
D)--3-3-333-333-3-3-3-333-333-3-0----)
      . ... ... .   . ... ... . 

Guitar 1
e)-------------------------------------------------)
B)-------------------------------------------------)
G)----------------------------------------------5--)
D)--0-00---------00----------0-00---------00-3--5--)
A)--0-00---------00----------0-00---------00-3--3--)
D)--0-00---------00----------0-00---------00-3-----)\
                                                     |
                                                     |2x
Guitar 2                                             |
e)-------------------------------------------------)/
B)-------------------------------------------------)
G)----------------------------------------------5--)
D)--0-00---------00----------0-00---------00-3--5--)
A)--0-00-3h5-3h5-00--3h5-3h5-0-00-3h6p3p0-00-3--3--)
D)--0-00---------00----------0-00---------00-3-----)

Guitar 1
e)-------------------------------------------------)
B)-------------------------------------------------)
G)----------------------------------------------5--)
D)--0-00---------00----------0-00---------00-3--5--)
A)--0-00-3h5-3h5-00--3h5-3h5-0-00-3h6p3p0-00-3--3--)
D)--0-00---------00----------0-00---------00-3-----)\
                                                    |
                                                    |2x
Guitar 2                                            |
e)-------------------------------------------------)/
B)-------------------------------------------------)
G)----------------------------------------------5--)
D)--0-00---------00----------0-00---------00-3--5--)
A)--0-00-3h5-3h5-00--3h5-3h5-0-00-3h6p3p0-00-3--3--)
D)--0-00---------00----------0-00---------00-3-----)

Guitar 1
e)------------------------------------------------------------------------)
B)------------------------------------------------------------------------)
G)------------------------------------------------------------------------)
D)------------------------------------------------------------------------)
A)--13-----12-13---------12-13-15-13-12h13-12-----13-12---------13---12~--)
D)-----000-------000-000----------------------000-------000-000----0------)
       ...       ... ...                      ...       ... ...    .

Guitar 2 (same time as guitar 1)
e)-----------------------------------------------------------)
B)-----------------------------------------------------------)
G)-----------------------------------------------------------)
D)-----------------------------------------------------------)
A)--8-----7-8---------7-8-10-8-7h8-7-----8-7---------8---7~--)
D)----000-----000-000----------------000-----000-000---0-----)
      ...     ... ...                ...     ... ...   .

Both guitars
e)------------------------------------------------------------)
B)------------------------------------------------------------)
G)------------------------------------------------------------)
D)--3--------3--------3--------3-----3-3-3-00--/////////////--)
A)--1-11111111-11111111-11111111-11111-3-3-00--//PICKSLIDE//--)
D)-------------------------------------3-3-00--/////////////--)

Guitar 1
e)---------------------------------------------------)
B)---------------------------------------------------)
G)---------------------------------------------------)
D)--0---------0-----------0-----------0--------------)
A)--0-0-0-0-0-0-0-000-000-0-0-000-000-0-0--13---12~--)
D)--0-0-0-0-0-0-0-000-000-0-0-000-000-0-0-----0------)
      . . . .   . ... ...   . ... ...   .     .


Guitar 2
e)-------------------------------------------------)
B)-------------------------------------------------)
G)-------------------------------------------------)
D)--0---------0-----------0-----------0------------)
A)--0-0-0-0-0-0-0-000-000-0-0-000-000-0-0--8---7~--)
D)--0-0-0-0-0-0-0-000-000-0-0-000-000-0-0----0-----)
      . . . .   . ... ...   . ... ...   .    .

Both guitars
e)-----------------------------------)
B)-----------------------------------)
G)---------------------------------5-)
D)--3-------------3-------------0--5-)
A)--3-3-333-333-3-3-3-333-333-3-0--3-)
D)--3-3-333-333-3-3-3-333-333-3-0----)
      . ... ... .   . ... ... . 

Guitar 1
e)-------------------------------------------------)
B)-------------------------------------------------)
G)----------------------------------------------5--)
D)--0-00---------00----------0-00---------00-3--5--)
A)--0-00---------00----------0-00---------00-3--3--)
D)--0-00---------00----------0-00---------00-3-----)\
                                                     |
                                                     |2x
Guitar 2                                             |
e)-------------------------------------------------)/
B)-------------------------------------------------)
G)----------------------------------------------5--)
D)--0-00---------00----------0-00---------00-3--5--)
A)--0-00-3h5-3h5-00--3h5-3h5-0-00-3h6p3p0-00-3--3--)
D)--0-00---------00----------0-00---------00-3-----)

Guitar 1
e)-------------------------------------------------)
B)-------------------------------------------------)
G)----------------------------------------------5--)
D)--0-00---------00----------0-00---------00-3--5--)
A)--0-00-3h5-3h5-00--3h5-3h5-0-00-3h6p3p0-00-3--3--)
D)--0-00---------00----------0-00---------00-3-----)\
                                                    |
                                                    |2x
Guitar 2                                            |
e)-------------------------------------------------)/
B)-------------------------------------------------)
G)----------------------------------------------5--)
D)--0-00---------00----------0-00---------00-3--5--)
A)--0-00-3h5-3h5-00--3h5-3h5-0-00-3h6p3p0-00-3--3--)
D)--0-00---------00----------0-00---------00-3-----)

Guitar 1
e)------------------------------------------------------------------------)
B)------------------------------------------------------------------------)
G)------------------------------------------------------------------------)
D)------------------------------------------------------------------------)
A)--13-----12-13---------12-13-15-13-12h13-12-----13-12---------13---12~--)
D)-----000-------000-000----------------------000-------000-000----0------)
       ...       ... ...                      ...       ... ...    .

Guitar 2 (same time as guitar 1)
e)-----------------------------------------------------------)
B)-----------------------------------------------------------)
G)-----------------------------------------------------------)
D)-----------------------------------------------------------)
A)--8-----7-8---------7-8-10-8-7h8-7-----8-7---------8---7~--)
D)----000-----000-000----------------000-----000-000---0-----)
      ...     ... ...                ...     ... ...   .

Both guitars
e)------------------------------------------------------------)
B)------------------------------------------------------------)
G)------------------------------------------------------------)
D)--3--------3--------3--------3-----3-3-3-00--/////////////--)
A)--1-11111111-11111111-11111111-11111-3-3-00--//PICKSLIDE//--)
D)-------------------------------------3-3-00--/////////////--)

Both guitars                       (hold last note)
e)-------------------------------------------------)
B)-------------------------------------------------)
G)-------------------------------------------------)
D)-------------------------------------------------)
A)--0-0-0--0-0--0-0--0-0--0-0--0-0--0-0--0-0--0-0--)
D)--0-0-0--0-0--0-0--0-0--0-0--0-0--0-0--0-0--0-0--)
    . . .  . .  . .  . .  . .  . .  . .  . .  . 

Both guitars                       
e)----------------------------------------------------------)
B)----------------------------------------------------------)
G)----------------------------------------------------------)
D)----------------------------------------------------------)
A)--0-0-0--0-0--0-0--0-0--0-0--0-0--0-0--0-0--0-0--3hb-3hb--)
D)--0-0-0--0-0--0-0--0-0--0-0--0-0--0-0--0-0--0-0--3hb-3hb--)
    . . .  . .  . .  . .  . .  . .  . .  . .  . 

Guitar 1 (let all notes ring when played)
e)--------------------------------------------------)
B)--------------------------------------------------)
G)--------------------------------------------------)
D)--------------------------------------------------)
A)--0-0-0--0-0--0-0--0-0--0-0--0-0--0-0--0-0--0-----)
D)--0-0-0--0-0--0-0--0-0--0-0--0-0--0-0--0-0--0-2*--)
    . . .  . .  . .  . .  . .  . .  . .  . .  . 

Guitar 2
e)-------------------------------------------------)
B)-------------------------------------------------)
G)-------------------------------------------------)
D)-------------------------------------------------)
A)--0-0-0--0-0--0-0--0-0--0-0--0-0--0-0--0-0--0-0--)
D)--0-0-0--0-0--0-0--0-0--0-0--0-0--0-0--0-0--0-0--)
    . . .  . .  . .  . .  . .  . .  . .  . .  . 

Both guitars                       
e)--------------------------------------------------------------)
B)--------------------------------------------------------------)
G)---------------------------------------------------------3-2--)
D)---------------------------------------------------------3-2--)
A)--0-0-0--0-0--0-0--0-0--0-0--0-0--0-0--0-0--0-0--3hb-3hb-1-0--)
D)--0-0-0--0-0--0-0--0-0--0-0--0-0--0-0--0-0--0-0--3hb-3hb------)
    . . .  . .  . .  . .  . .  . .  . .  . .  . 

SOLO
Guitar 1 odviously                 
(Im only gunna tab the Guitar 1 part, so sorry rythem people:|)
                                    [2x]
e)------------[13-13-10-10-12-12-10-10-13-13-10-10-15-15-10-10]-13h15-13~--)
B)--13br-------------------------------------------------------------------)
G)--12br-10~---------------------------------------------------------------)
D)-------------------------------------------------------------------------)
A)-------------------------------------------------------------------------)
D)-------------------------------------------------------------------------)

SWEEPING
e)--------13h17p13------13h17p13---------11h15p11------11h15p11------)
B)--15--15--------15--15--------15-----13--------13--13--------13----)
G)----14------------14------------14-12------------12------------12--)
D)-------------------------------------------------------------------)
A)-------------------------------------------------------------------)
D)-------------------------------------------------------------------)

e)-----17-15-13-15-17------17-15-13-12------17-15-17-13-17-12-17-----------------)
B)-15------------------15---------------15-----------------------15-13-15-17-18--)
G)-------------------------------------------------------------------------------)
D)-------------------------------------------------------------------------------)
A)-------------------------------------------------------------------------------)
D)-------------------------------------------------------------------------------)

PICK TAPPING
e)--10-13-15-10-13-15-10-13-15-10-13-15-10-13-15-10-13-15-10-13-15--)
B)------------------------------------------------------------------)
G)------------------------------------------------------------------)
D)------------------------------------------------------------------)
A)------------------------------------------------------------------)
D)------------------------------------------------------------------)

e)--10-13-15-10-13-16-10-13-15-10-13-16-10-13-15-10-13-16-10-13-15--)
B)------------------------------------------------------------------)
G)------------------------------------------------------------------)
D)------------------------------------------------------------------)
A)------------------------------------------------------------------)
D)------------------------------------------------------------------)

e)------------------------------------------12-14-15-17~--5#-h12/--)
B)----------------------------------11-13-15--------------5#-h12/--)
G)--------------------------10-12-14-------------------------------)
D)------------------10-12-14---------------------------------------)
A)----------10-12-14-----------------------------------------------)
D)--12-14-15-------------------------------------------------------)

Guitar 1                                          
e)------------------------)
B)------------------------)
G)---------------------5--)
D)--0-00---------00-3--5--)
A)--0-00-3h6p3p0-00-3--3--)
D)--0-00---------00-3-----)

Guitar 1
e)-------------------------------------------------)
B)-------------------------------------------------)
G)----------------------------------------------5--)
D)--0-00---------00----------0-00---------00-3--5--)
A)--0-00---------00----------0-00---------00-3--3--)
D)--0-00---------00----------0-00---------00-3-----)\
                                                     |
                                                     |2x
Guitar 2                                             |
e)-------------------------------------------------)/
B)-------------------------------------------------)
G)----------------------------------------------5--)
D)--0-00---------00----------0-00---------00-3--5--)
A)--0-00-3h5-3h5-00--3h5-3h5-0-00-3h6p3p0-00-3--3--)
D)--0-00---------00----------0-00---------00-3-----)

Guitar 1
e)-------------------------------------------------)
B)-------------------------------------------------)
G)----------------------------------------------5--)
D)--0-00---------00----------0-00---------00-3--5--)
A)--0-00-3h5-3h5-00--3h5-3h5-0-00-3h6p3p0-00-3--3--)
D)--0-00---------00----------0-00---------00-3-----)\
                                                    |
                                                    |2x
Guitar 2                                            |
e)-------------------------------------------------)/
B)-------------------------------------------------)
G)----------------------------------------------5--)
D)--0-00---------00----------0-00---------00-3--5--)
A)--0-00-3h5-3h5-00--3h5-3h5-0-00-3h6p3p0-00-3--3--)
D)--0-00---------00----------0-00---------00-3-----)

Guitar 1
e)------------------------------------------------------------------------)
B)------------------------------------------------------------------------)
G)------------------------------------------------------------------------)
D)------------------------------------------------------------------------)
A)--13-----12-13---------12-13-15-13-12h13-12-----13-12---------13---12~--)
D)-----000-------000-000----------------------000-------000-000----0------)
       ...       ... ...                      ...       ... ...    .

Guitar 2 (same time as guitar 1)
e)-----------------------------------------------------------)
B)-----------------------------------------------------------)
G)-----------------------------------------------------------)
D)-----------------------------------------------------------)
A)--8-----7-8---------7-8-10-8-7h8-7-----8-7---------8---7~--)
D)----000-----000-000----------------000-----000-000---0-----)
      ...     ... ...                ...     ... ...   .


Both guitars
e)---------------------------------------------------------------------)
B)---------------------------------------------------------------------)
G)---------------------------------------------------------------------)
D)--3--------3--------3--------3-----3-3-3-00-----------/////////////--)
A)--1-11111111-11111111-11111111-11111-3-3-00-----------//PICKSLIDE//--)
D)-------------------------------------3-3-00-----------/////////////--)


Both guitars                       (hold last note)
e)-------------------------------------------------)
B)-------------------------------------------------)
G)-------------------------------------------------)
D)-------------------------------------------------)
A)--0-0-0--0-0--0-0--0-0--0-0--0-0--0-0--0-0--0-0--)
D)--0-0-0--0-0--0-0--0-0--0-0--0-0--0-0--0-0--0-0--)
    . . .  . .  . .  . .  . .  . .  . .  . .  . 

Both guitars                       
e)----------------------------------------------------------)
B)----------------------------------------------------------)
G)----------------------------------------------------------)
D)----------------------------------------------------------)
A)--0-0-0--0-0--0-0--0-0--0-0--0-0--0-0--0-0--0-0--3hb-3hb--)
D)--0-0-0--0-0--0-0--0-0--0-0--0-0--0-0--0-0--0-0--3hb-3hb--)
    . . .  . .  . .  . .  . .  . .  . .  . .  . 

Guitar 1 (let all notes ring when played)
e)--------------------------------------------------)
B)--------------------------------------------------)
G)--------------------------------------------------)
D)--------------------------------------------------)
A)--0-0-0--0-0--0-0--0-0--0-0--0-0--0-0--0-0--0-----)
D)--0-0-0--0-0--0-0--0-0--0-0--0-0--0-0--0-0--0-2*--)
    . . .  . .  . .  . .  . .  . .  . .  . .  . 

Guitar 2
e)-------------------------------------------------)
B)-------------------------------------------------)
G)-------------------------------------------------)
D)-------------------------------------------------)
A)--0-0-0--0-0--0-0--0-0--0-0--0-0--0-0--0-0--0-0--)
D)--0-0-0--0-0--0-0--0-0--0-0--0-0--0-0--0-0--0-0--)
    . . .  . .  . .  . .  . .  . .  . .  . .  . 

Both guitars                       
e)--------------------------------------------------------------)
B)--------------------------------------------------------------)
G)---------------------------------------------------------3-2--)
D)---------------------------------------------------------3-2--)
A)--0-0-0--0-0--0-0--0-0--0-0--0-0--0-0--0-0--0-0--3hb-3hb-1-0--)
D)--0-0-0--0-0--0-0--0-0--0-0--0-0--0-0--0-0--0-0--3hb-3hb------)
    . . .  . .  . .  . .  . .  . .  . .  . .  . 

BOTH GUITARS
e)---------------------------------------------------------------------)
B)---------------------------------------------------------------------)
G)---------------------------------------------------------------------)
D)------------------------------------------------------------------0--)
A)------------------------------------------------------------------0--)
D)--6-5-3-0-5-3-2-0-6-5-3-0-5-3-2-0-6-5-3-0-5-3-2-0-6-5-3-0-5-3-2-0-0--)


. = PALM MUTE
~ = VABRADO
H = HAMER ON
P = PULL OFF
HB = HALF BEND
/ = SLIDE DOWN
TR = TREMILO PICK
* = PINCH HARMONIC
# = NATURAL HARMONIC



Well, this is it! please comment or e-mail me! this is a
great song. hope you enjoy! and to those who are just gunna 
tell me how wrong it is becuase its not in D standard, dont
even both to comment.
PEACE!!
Tap to rate this tab
# A B C D E F G H I J K L M N O P Q R S T U V W X Y Z