Song name
# A B C D E F G H I J K L M N O P Q R S T U V W X Y Z

Bullet For My Valentine - Scream Aim Fire tab

Scream Aim Fire
Bullet For My Valentine
Scream Aim Fire
D Tuning- DGCFAD

-Intro-
Matt
D||-----------------------------------------------------------------------------|
A||o----------------------------------------------------------------------------|
F||-----------------------------------------------------------------------------|
C||-----------------------------------------------------------------------------|
G||o-10-----9-10--------------9-10-12-10-9-10-9-------10-9--------------12-10~~-|
D||-----0-0------0-0-0--0-0-0-------------------0-0-0------0-0-0--0-0-0---------|
        - -      - - -  - - -                   - - -      - - -  - - -
Padge
D||-----------------------------------------------------------------------------|
A||o----------------------------------------------------------------------------|
F||-----------------------------------------------------------------------------|
G||--9-----7--9---------------7--9--10--9-7-9-7-------9--7--------------10-9~~~-|
C||o----------------------------------------------------------------------------|
D||----0-0-------0-0-0--0-0-0-------------------0-0-0------0-0-0--0-0-0---------|
       - -       - - -  - - -                   - - -      - - -  - - -

Matt
D|-------------------------------------------------------------------||
A|------------------------------------------------------------------o||
F|-------------------------------------------------------------------||
C|-------------------------------------------------------------7~~~~-||
G|-10---------9--------10--------10---------9-----9-10---5~~~~-5~~~~o||
D|--8-8-8-8-8-8-8-8-8-8-8-8-8-8-8-8-8-8-8-8-8-8-8-8-8----3~~~~-------||
      - - - -   - - - -   - - - -   - - - -   - -
Padge
D|-------------------------------------------------------------------||
A|------------------------------------------------------------------o||
F|-9-9-9-11-11-11-12-12-12-14-14-14-9-9-9-11-11-11-12-12-12-7-7-7-9\-||
C|-------------------------------------------------------------------||
G|------------------------------------------------------------------o||
D|-------------------------------------------------------------------||
Gtr 3
D|-------------------------------------------------------------------|
A|-8-8-8-10-10-10-12-12-12-13-13-13-8-8-8-10-10-10-12-12-12-7-7-7-8\-|
F|-------------------------------------------------------------------|
C|-------------------------------------------------------------------|
G|-------------------------------------------------------------------|
D|-------------------------------------------------------------------|

Matt & Padge
D|--------------------------------------------------|
A|--------------------------------------------------|
F|--------------------------------------------------|
C|-2~~~~~~~~~~~~~~~~~~~~~~-pickslide----------------|
G|-2~~~~~~~~~~~~~~~~~~~~~~-x\\\\\\\\\\\\\\\\\\\\\\\-|
D|-0~~~~~~~~~~~~~~~~~~~~~~-x\\\\\\\\\\\\\\\\\\\\\\\-|

-Verse-
D||----------------------------------------------------------------|
A||o---------------------------------------------------------------|
F||----------------------------------------------------------------|
C||----------------------------------------------------------------|
G||o-2-----------------2--------------------2--------------------2-|
D||--0-0-0-0--0-0-0--0-0-0--0-0-0--0-0-0--0-0-0--0-0-0--0-0-0--0-0-|
       - - -  - - -  -   -  - - -  - - -  -   -  - - -  - - -  -
-"Kill your enemies, my brothers dead around me...
-"Smoke is blinding, hearts are pounding, chaos soon ignites...

Matt
D|--------|
A|--------|
F|-5p0-4~-|
C|--------|
G|--------|
D|--------|
Padge
D|--------|
A|--------|
F|--------|
C|-7p0-5~-|
G|--------|
D|--------|

Matt & Padge
D|---------------------------------------------------------||
A|--------------------------------------------------------o||
F|---------------------------------------------------------||
C|-----------------------------------------7~~~~----4~~~~--||
G|-5--------------------5------------------5~~~~----2~~~~-o||
D|-3-3--3-3-3--3-3-3--3-3-3--3-3-3--3-3-3------------------||
     -  - - -  - - -  -   -  - - -  - - -
...Wounds are hurting, death is creeping for me"
...The call is made, its one for all, will I meet my maker?"

-Pre Chorus-
Padge
D||-------------------------------------------------------||
A||o-----------------------------------------------------o||
F||-------------------------------------------------------||
C||-------------------------------------------------7~~~--||
G||o-2--5h7-5h7-----5h7-5h7--2--2--5h8p5-----5~~~~--5~~~-o||
D||--0----------0-0----------0--0--------6-5-3~~~~--------||
Matt            - -                      - -
D||-------------------------------------------------------||
A||o-----------------------------------------------------o||
F||-------------------------------------------------------||
C||--2-----------------------2--2-------------------7~~~--||
G||o-2-----------------------2--2------------5~~~~--5~~~-o||
D||--0-----------------------0--0------------3~~~~--------||
"(OVER THE TOP! OVER THE TOP!) Right now its killing time"

Matt & Padge
D||-------------------------------------------------------||
A||o-----------------------------------------------------o||
F||-------------------------------------------------------||
C||-------------------------------------------------7~~~--||
G||o-2--5h7-5h7-----5h7-5h7--2--2--5h8p5-----5~~~~--5~~~-o||
D||--0----------0-0----------0--0--------6-5-3~~~~--------||
                - -                      - -
"(OVER THE TOP! OVER THE TOP!) The only way out is to die!"

-Chorus-
Matt
D||-----------------------------------------------------------------------------|
A||o----------------------------------------------------------------------------|
F||-----------------------------------------------------------------------------|
C||-----------------------------------------------------------------------------|
G||o-10-----9-10--------------9-10-12-10-9-10-9-------10-9--------------12-10~~-|
D||-----0-0------0-0-0--0-0-0-------------------0-0-0------0-0-0--0-0-0---------|
        - -      - - -  - - -                   - - -      - - -  - - -
Padge
D||-----------------------------------------------------------------------------|
A||o----------------------------------------------------------------------------|
F||-----------------------------------------------------------------------------|
G||--9-----7--9---------------7--9--10--9-7-9-7-------9--7--------------10-9~~~-|
C||o----------------------------------------------------------------------------|
D||----0-0-------0-0-0--0-0-0-------------------0-0-0------0-0-0--0-0-0---------|
       - -       - - -  - - -                   - - -      - - -  - - -
"God has spoken through his conscience, as I...

Matt & Padge
D|-------------------------------------------------------------------||
A|------------------------------------------------------------------o||
F|-------------------------------------------------------------------||
C|-------------------------------------------------------------7~~~~-||
G|-10---------9--------10--------10---------9-----9-10---5~~~~-5~~~~o||
D|--8-8-8-8-8-8-8-8-8-8-8-8-8-8-8-8-8-8-8-8-8-8-8-8-8----3~~~~-------||
      - - - -   - - - -   - - - -   - - - -   - -
...Scream, Aim and Fire! The death toll grows higher"


D|--------------------------------------------------|
A|--------------------------------------------------|
F|--------------------------------------------------|
C|-2~~~~~~~~~~~~~~~~~~~~~~-pickslide----------------|
G|-2~~~~~~~~~~~~~~~~~~~~~~-x\\\\\\\\\\\\\\\\\\\\\\\-|
D|-0~~~~~~~~~~~~~~~~~~~~~~-x\\\\\\\\\\\\\\\\\\\\\\\-|
                      "...CHAAAARRGE!!!"

-Verse-
D||----------------------------------------------------------------|
A||o---------------------------------------------------------------|
F||----------------------------------------------------------------|
C||----------------------------------------------------------------|
G||o-2-----------------2--------------------2--------------------2-|
D||--0-0-0-0--0-0-0--0-0-0--0-0-0--0-0-0--0-0-0--0-0-0--0-0-0--0-0-|
       - - -  - - -  -   -  - - -  - - -  -   -  - - -  - - -  -
-"Fuck these battlefields, the bullets tear around me...
-"Limbs are flying, men are crying, such a hurtful sight...

Matt
D|--------|
A|--------|
F|-5p0-4~-|
C|--------|
G|--------|
D|--------|
Padge
D|--------|
A|--------|
F|--------|
C|-7p0-5~-|
G|--------|
D|--------|

Matt & Padge
D|---------------------------------------------------------||
A|--------------------------------------------------------o||
F|---------------------------------------------------------||
C|-----------------------------------------7~~~~----4~~~~--||
G|-5--------------------5------------------5~~~~----2~~~~-o||
D|-3-3--3-3-3--3-3-3--3-3-3--3-3-3--3-3-3------------------||
     -  - - -  - - -  -   -  - - -  - - -
...Bodies falling, voices calling for me"
...The call is made one for all, take no prisoners!"

-Pre Chorus-
Padge
D||-------------------------------------------------------||
A||o-----------------------------------------------------o||
F||-------------------------------------------------------||
C||-------------------------------------------------7~~~--||
G||o-2--5h7-5h7-----5h7-5h7--2--2--5h8p5-----5~~~~--5~~~-o||
D||--0----------0-0----------0--0--------6-5-3~~~~--------||
Matt            - -                      - -
D||-------------------------------------------------------||
A||o-----------------------------------------------------o||
F||-------------------------------------------------------||
C||--2-----------------------2--2-------------------7~~~--||
G||o-2-----------------------2--2------------5~~~~--5~~~-o||
D||--0-----------------------0--0------------3~~~~--------||
"(OVER THE TOP! OVER THE TOP!) Right now its killing time"

Matt & Padge
D||-------------------------------------------------------||
A||o-----------------------------------------------------o||
F||-------------------------------------------------------||
C||-------------------------------------------------7~~~--||
G||o-2--5h7-5h7-----5h7-5h7--2--2--5h8p5-----5~~~~--5~~~-o||
D||--0----------0-0----------0--0--------6-5-3~~~~--------||
                - -                      - -
"(OVER THE TOP! OVER THE TOP!) The only way out is to die!"

-Chorus-
Matt
D||-----------------------------------------------------------------------------|
A||o----------------------------------------------------------------------------|
F||-----------------------------------------------------------------------------|
C||-----------------------------------------------------------------------------|
G||o-10-----9-10--------------9-10-12-10-9-10-9-------10-9--------------12-10~~-|
D||-----0-0------0-0-0--0-0-0-------------------0-0-0------0-0-0--0-0-0---------|
        - -      - - -  - - -                   - - -      - - -  - - -
Padge
D||-----------------------------------------------------------------------------|
A||o----------------------------------------------------------------------------|
F||-----------------------------------------------------------------------------|
G||--9-----7--9---------------7--9--10--9-7-9-7-------9--7--------------10-9~~~-|
C||o----------------------------------------------------------------------------|
D||----0-0-------0-0-0--0-0-0-------------------0-0-0------0-0-0--0-0-0---------|
       - -       - - -  - - -                   - - -      - - -  - - -
"God has spoken through his conscience, as I...

Matt & Padge
D|-------------------------------------------------------------------||
A|------------------------------------------------------------------o||
F|-------------------------------------------------------------------||
C|-------------------------------------------------------------7~~~~-||
G|-10---------9--------10--------10---------9-----9-10---5~~~~-5~~~~o||
D|--8-8-8-8-8-8-8-8-8-8-8-8-8-8-8-8-8-8-8-8-8-8-8-8-8----3~~~~-------||
      - - - -   - - - -   - - - -   - - - -   - -
...Scream, Aim and Fire! The death toll grows higher"


D|--------------------------------------------------|
A|--------------------------------------------------|
F|--------------------------------------------------|
C|-2~~~~~~~~~~~~~~~~~~~~~~-pickslide----------------|
G|-2~~~~~~~~~~~~~~~~~~~~~~-x\\\\\\\\\\\\\\\\\\\\\\\-|
D|-0~~~~~~~~~~~~~~~~~~~~~~-x\\\\\\\\\\\\\\\\\\\\\\\-|

-Breakdown-
Matt & Padge
D|-------------------------------------------------------|
A|-------------------------------------------------------|
F|-------------------------------------------------------|
C|-----------------------------------------------------2-|
G|-2-2-2---2-2---2-2---2-2---2-2---2-2---2-2---2-2---2-2-|
D|-0-0-0---0-0---0-0---0-0---0-0---0-0---0-0---0-0---0-0-|
   - - -   - -   - -   - -   - -   - -   - -   - -   -
"SCREAM! AIM! FIIIRE!"

D|-------------------------------------------------------------|
A|-------------------------------------------------------------|
F|-------------------------------------------------------------|
C|-------------------------------------------------------------|
G|-2-2---2-2---2-2---2-2---2-2---2-2---2-2---2-2---2-2--5b--5b-|
D|-0-0---0-0---0-0---0-0---0-0---0-0---0-0---0-0---0-0--3b--3b-|
   - -   - -   - -   - -   - -   - -   - -   - -   - -
"SCREAM! AIM! FIIIIIIIIIIIIIIIIIIIIRE!"

D|--------------------------------------------------------------|
A|--------------------------------------------------------------|
F|--------------------------------------------------------------|
C|--------------------------------------------------------------|
G|-2-2---2-2---2-2---2-2---2-2---2-2---2-2---2-2---2-2--2--3*~~-|
D|-0-0---0-0---0-0---0-0---0-0---0-0---0-0---0-0---0-0--0-------|
   - -   - -   - -   - -   - -   - -   - -   - -   - -  -

D|-------------------------------------------------------------------|
A|-------------------------------------------------------------------|
F|-------------------------------------------------------------------|
C|--------------------------------------------------------------5--4-|
G|-2-2---2-2---2-2---2-2---2-2---2-2---2-2---2-2---2-2--5---5---3--2-|
D|-0-0---0-0---0-0---0-0---0-0---0-0---0-0---0-0---0-0--3---3--------|
   - -   - -   - -   - -   - -   - -   - -   - -   - -

-Solo-
Padge
D|---------------15-12-12-12-14-12-12-12-15-12-12-12-17-12-12-12-15-|
A|-15b~~------------------------------------------------------------|
F|-14b~~-14-12~~----------------------------------------------------|
C|------------------------------------------------------------------|
G|------------------------------------------------------------------|
D|------------------------------------------------------------------|

D|-12-12-12-14-12-12-12-15-12-12-12-17-12-12-12-15b~~~-------|
A|-----------------------------------------------------15----|
F|--------------------------------------------------------17-|
C|-----------------------------------------------------------|
G|-----------------------------------------------------------|
D|-----------------------------------------------------------|

D|-------15-19p15----------15-19p15----------14-17p14----------14-17-------|
A|----17----------17----17----------17----16----------16----16-------17~~~-|
F|-16----------------16----------------14----------------14----------------|
C|-------------------------------------------------------------------------|
G|-------------------------------------------------------------------------|
D|-------------------------------------------------------------------------|

D|-19-17-15-17-19-----19-17-15-14------19-17-19-15-19-14-19---------------------|
A|----------------17~~------------17~~----------------------17-15-17-19-20-17~~-|
F|------------------------------------------------------------------------------|
C|------------------------------------------------------------------------------|
G|------------------------------------------------------------------------------|
D|------------------------------------------------------------------------------|
   T        T        T        T        T        T        T        T
D|-19p15p12-19p15p12-19p15p12-20p15p13-20p15p12-20p15p12-19p15p12-19p15p12-|
A|-------------------------------------------------------------------------|
F|-------------------------------------------------------------------------|
C|-------------------------------------------------------------------------|
G|-------------------------------------------------------------------------|
D|-------------------------------------------------------------------------|
   T        T        T        T        T        T        T        T
D|-19p12p10-19p12p10-19p12p10-20p12p10-20p12p10-20p12p10-19p12p10-19p12p10-|
A|-------------------------------------------------------------------------|
F|-------------------------------------------------------------------------|
C|-------------------------------------------------------------------------|
G|-------------------------------------------------------------------------|
D|-------------------------------------------------------------------------|

D|----------------------------------------------14h15h17-17b~~~~-|
A|-------------------------------------13h15h17------------------|
F|----------------------------12h14h16---------------------------|
C|-------------------12h14h16------------------------------------|
G|----------12h14h15---------------------------------------------|
D|-12h14h15------------------------------------------------------|
Matt Under Solo
D||-------------------------------------------------------------------------|
A||o------------------------------------------------------------------------|
F||-----------------------------------------------------------------5p0-4~~-|
C||-------------------------------------------------------------------------|
G||o-2-----------------2--------------------2--------------------2----------|
D||--0-0-0-0--0-0-0--0-0-0--0-0-0--0-0-0--0-0-0--0-0-0--0-0-0--0-0----------|
       - - -  - - -  -   -  - - -  - - -  -   -  - - -  - - -  -
D|---------------------------------------------------------||
A|--------------------------------------------------------o||
F|---------------------------------------------------------||
C|-----------------------------------------7~~~~----4~~~~--||
G|-5--------------------5------------------5~~~~----2~~~~-o||
D|-3-3--3-3-3--3-3-3--3-3-3--3-3-3--3-3-3------------------||
     -  - - -  - - -  -   -  - - -  - - -


-Pre Chorus-
Padge
D||-------------------------------------------------------||
A||o-----------------------------------------------------o||
F||-------------------------------------------------------||
C||-------------------------------------------------7~~~--||
G||o-2--5h7-5h7-----5h7-5h7--2--2--5h8p5-----5~~~~--5~~~-o||
D||--0----------0-0----------0--0--------6-5-3~~~~--------||
Matt            - -                      - -
D||-------------------------------------------------------||
A||o-----------------------------------------------------o||
F||-------------------------------------------------------||
C||--2-----------------------2--2-------------------7~~~--||
G||o-2-----------------------2--2------------5~~~~--5~~~-o||
D||--0-----------------------0--0------------3~~~~--------||
"(OVER THE TOP! OVER THE TOP!) Right now its killing time"

Matt & Padge
D||-------------------------------------------------------||
A||o-----------------------------------------------------o||
F||-------------------------------------------------------||
C||-------------------------------------------------7~~~--||
G||o-2--5h7-5h7-----5h7-5h7--2--2--5h8p5-----5~~~~--5~~~-o||
D||--0----------0-0----------0--0--------6-5-3~~~~--------||
                - -                      - -
"(OVER THE TOP! OVER THE TOP!) The only way out is to die!"

-Chorus-
Matt
D||-----------------------------------------------------------------------------|
A||o----------------------------------------------------------------------------|
F||-----------------------------------------------------------------------------|
C||-----------------------------------------------------------------------------|
G||o-10-----9-10--------------9-10-12-10-9-10-9-------10-9--------------12-10~~-|
D||-----0-0------0-0-0--0-0-0-------------------0-0-0------0-0-0--0-0-0---------|
        - -      - - -  - - -                   - - -      - - -  - - -
Padge
D||-----------------------------------------------------------------------------|
A||o----------------------------------------------------------------------------|
F||-----------------------------------------------------------------------------|
G||--9-----7--9---------------7--9--10--9-7-9-7-------9--7--------------10-9~~~-|
C||o----------------------------------------------------------------------------|
D||----0-0-------0-0-0--0-0-0-------------------0-0-0------0-0-0--0-0-0---------|
       - -       - - -  - - -                   - - -      - - -  - - -
"God has spoken through his conscience, as I...

Matt & Padge
D|-------------------------------------------------------------------||
A|------------------------------------------------------------------o||
F|-------------------------------------------------------------------||
C|-------------------------------------------------------------7~~~~-||
G|-10---------9--------10--------10---------9-----9-10---5~~~~-5~~~~o||
D|--8-8-8-8-8-8-8-8-8-8-8-8-8-8-8-8-8-8-8-8-8-8-8-8-8----3~~~~-------||
      - - - -   - - - -   - - - -   - - - -   - -
...Scream, Aim and Fire! The death toll grows higher"


D|--------------------------------------------------|
A|--------------------------------------------------|
F|--------------------------------------------------|
C|-2~~~~~~~~~~~~~~~~~~~~~~~~~~~~~~~~~~~~~~~~~~~~~~~-|
G|-2~~~~~~~~~~~~~~~~~~~~~~~~~~~~~~~~~~~~~~~~~~~~~~~-|
D|-0~~~~~~~~~~~~~~~~~~~~~~~~~~~~~~~~~~~~~~~~~~~~~~~-|

-Outro-
Matt & Padge
D|-------------------------------------------------------|
A|-------------------------------------------------------|
F|-------------------------------------------------------|
C|-----------------------------------------------------2-|
G|-2-2-2---2-2---2-2---2-2---2-2---2-2---2-2---2-2---2-2-|
D|-0-0-0---0-0---0-0---0-0---0-0---0-0---0-0---0-0---0-0-|
   - - -   - -   - -   - -   - -   - -   - -   - -   -
D|-------------------------------------------------------------|
A|-------------------------------------------------------------|
F|-------------------------------------------------------------|
C|-------------------------------------------------------------|
G|-2-2---2-2---2-2---2-2---2-2---2-2---2-2---2-2---2-2--5b--5b-|
D|-0-0---0-0---0-0---0-0---0-0---0-0---0-0---0-0---0-0--3b--3b-|
   - -   - -   - -   - -   - -   - -   - -   - -   - -
D|--------------------------------------------------------------|
A|--------------------------------------------------------------|
F|--------------------------------------------------------------|
C|--------------------------------------------------------------|
G|-2-2---2-2---2-2---2-2---2-2---2-2---2-2---2-2---2-2--2--3*~~-|
D|-0-0---0-0---0-0---0-0---0-0---0-0---0-0---0-0---0-0--0-------|
   - -   - -   - -   - -   - -   - -   - -   - -   - -  -
"SCREAM! AIM! FIIIIIIIIIIIIIIIIIIIIRE!"

D|-------------------------------------------------------------------|
A|-------------------------------------------------------------------|
F|-------------------------------------------------------------------|
C|--------------------------------------------------------------5--4-|
G|-2-2---2-2---2-2---2-2---2-2---2-2---2-2---2-2---2-2--5---5---3--2-|
D|-0-0---0-0---0-0---0-0---0-0---0-0---0-0---0-0---0-0--3---3--------|
   - -   - -   - -   - -   - -   - -   - -   - -   - -

D|---------------------------------------------------------|
A|---------------------------------------------------------|
F|---------------------------------------------------------|
C|---------------------------------------------------------|
G|-------------------------------------------------------2-|
D|-3-2-0-6-5-3-0-5-3-2-0-6-5-3-0-5-3-2-0-6-5-3-0-5-3-2-0-0-|
   - - - - - - - - - - - - - - - - - - - - - - - - - - -
Tap to rate this tab
# A B C D E F G H I J K L M N O P Q R S T U V W X Y Z