Song name
# A B C D E F G H I J K L M N O P Q R S T U V W X Y Z

Bullet For My Valentine - Livin Life On The Edge Of The Knife tab

Livin' Life (On The Edge Of The Knife)

Matt Intro/ Pre-verse 2

d|-----------------------------------------|
a|-----------------------------------------|
f|------0----------------------------------|
c|-7-7~~--5-5~~--8-8~~--8-8~~--10-10-10-10-|
g|-5-5~~--5-5~~--5-5~~--5-5~~--8--8--8--8--|
c|-.------.------.------.------------------|

d|----------------------------------|
a|----------------------------------|
f|----------------------------------|  Five times
c|-7-7~~--5-5~~--8-8~~--10-10-10-10-|
g|-5-5~~--5-5~~--5-5~~---8--8--8-8--|
c|-.------.------.------------------|

d|-----------------------------|
a|-----------------------------|
f|-----------------------------|       Four times
c|-0-0~---------0-0-0-------8--|
g|-0-0~-THRICE--0-0-0-8-8-8-8--|
c|-0-0~---------0-0-0-8-8-8-8--|
   .            .                     

Verse Twice

d|----------------------------------------------|
a|----------------------------------------------|
f|----------------------------------------------|
c|-0-3-8-3--0-----------0-3-8-3--0----8-8--8~~--|
g|-0-3-8-3--0-----------0-3-8-3--0----8-8--8~~--|
c|-0-3-8-3--0-----------0-3-8-3--0----8-8--8~~--|
   . . . .              . . . .                              

pre-chorus

d|-----------------------------------|
a|-----------------------------------|
f|-----------------------------------|
c|-0-3-8-3--0~~~~~~~~~~~~~~~~~~~~~~~-|   Four times                                          
g|-0-3-8-3--0~~~~~~~~~~~~~~~~~~~~~~~-|
c|-0-3-8-3--0~~~~~~~~~~~~~~~~~~~~~~~-|
   . . . .                                  

Chorus (I don't know, Need help on this one)

Then pre-verse 2, verse 2, pre-chorus 2 & chorus 2.

BREAKDOWN 1 (Just listen it's just 0's of palm mute just follow the beat & you'll 
get it end when you're done just slide.)

Breakdown 2

d|----------------------------------------------------|
a|----------------------------------------------------|
f|----------------------------------------------------|
c|-0-3-8-3-0-3-8-3-00-00-00---0-3-8-3-0-3-8-3-00------|
g|-0-3-8-3-0-3-8-3-00-00-00---0-3-8-3-0-3-8-3-00------|
c|-0-3-8-3-0-3-8-3-00-00-00---0-3-8-3-0-3-8-3-00-3*~~-|                        
   . . . . . . . .            . . . . . . . .               

d|----------------------------------------------------------|
a|----------------------------------------------------------|
f|----------------------------------------------------------|
c|-0-3-8-3-0-3-8-3-00-00-00----0-3-8-3-0-3-8-3-0000---------|
g|-0-3-8-3-0-3-8-3-00-00-00----0-3-8-3-0-3-8-3-0000---------|
c|-0-3-8-3-0-3-8-3-00-00-00----0-3-8-3-0-3-8-3-0000---------| 
   . . . . . . . .             . . . . . . . .                

Then pre-chorus & chorus

Outro(Best outro ever)

d|---------------------------------------------------------|
a|---------------------------------------------------------|
f|---------------------------------------------------------|
c|---------------------------------------------------------|
g|-000-000-0~~--000-000-0~~--000-000-0~~--000-000-1-3------|
c|-000-000-0~~--000-000-0~~--000-000-0~~--000-000-1-3------|
   ... ...      ... ...      ... ...      ... ...        
     
d|---------------------------------------------------------|
a|---------------------------------------------------------|
f|---------------------------------------------------------|
c|---------------------------------------------------------|
g|-000-000-0~~--000-000-0~~--000-000-0~~-------------------|
c|-000-000-0~~--000-000-0~~--000-000-0~~-------------------|
   ... ...      ... ...      ... ...                             

d|-----------------|
a|-----------------|
f|-----------------|
c|-----------------|
g|-000-000-0~~-----| 
c|-000-000-0~~-----|       
   ... ... .               

Padge

intro

d|---------------------------------------------------------------------|
a|---------------------------------------------------------------------|
f|--------7-5~~~--8~~--------7-5~~~--8~~~-10-8--------------7-5~~~-8~~-|
c|---7~~~---------------7~~~-------------------10~~~---7~~~------------|
g|-5------------------5------------------------------5-----------------|      
c|---------------------------------------------------------------------|

d|---------------------------------------------------------------|
a|---------------------------------------------------------------|
f|--------7-5~~~--8~~--------7-5~~~--8~~~-10-8-------------------|
c|---7~~~---------------7~~~-------------------10~~~-------------|
g|-5------------------5--------------------------------/17~~~----|
c|---------------------------------------------------------------|   

d|-----------------------------|
a|-----------------------------|
f|-----------------------------|       Four times
c|-0-0~---------0-0-0-------8--|
g|-0-0~-THRICE--0-0-0-8-8-8-8--|
c|-0-0~---------0-0-0-8-8-8-8--|
   .            .                

Verse same as Matt

pre-chorus (note not 1 or 0 it's TEN)

f|999910101010101010-910977775555--|TWICE

Chorus i really don't know. For youtube i check some videos that people playing 
power chords or lead im not sure to believe. So i need help on that too.

pre-verse 2
d|-----------------------------------------------------|
a|-----------------------------------------------------|
f|--------7-5~~~--8~~--------7-5~~~--8~~~-10-8---------|
c|---7~~~---------------7~~~-------------------10~~~---|
g|-5------------------5--------------------------------| 

Verse 2, pre-chorus 2 and chorus 2.

Breakdown 1 & breakdown 2 is the same as matt. For breakdown 2 the 3* thingy it 
should be on the 2nd string.

then pre-chorus 3 & final chorus.

Outro
D-----------------\
A------------- ----\
F----8^----8^-------\ Repeat
C-12^---12^---12----/ till end
G----------------- /
C-----------------/

And we're done! Hope you guys enjoy. If there's errors please comment! =B
Tap to rate this tab
# A B C D E F G H I J K L M N O P Q R S T U V W X Y Z