Song name
# A B C D E F G H I J K L M N O P Q R S T U V W X Y Z

Bunkface - Revolusi tab

Revolusi -
tabbed by m3er (http://www.youtube.com/m3erZone)
the video:- http://www.youtube.com/watch?v=bfHyk3wJsa8

if you enjoy this tab please rate my video, very much appreciate it.
you can request for any song for me to tab out
i usually tabbed them out by hearing.
good luck playing

(Intro)
e---------------|
B---------------|
G---------------|
D------4------4-|
A--5-5--5-5-5---|
E---------------|
(repeat jer)

e--------------------------------------------------------------------------|
B--------------------------------------------------------------------------|
G--------------------------------------------------------------------------|
D---------------------------------------------------------9---9-9----------|
A-------------5---5-5-5---5-5-7---7-7-------------5---5-5-7---7-7-7---7-7--|
E--(SU)/7-5-7---------3---3-3-5---5-5--(SU)/7-5-7-----------------5---5-5--|
(2 x)

e------------------------------------------------------|
B------------------------------------------------------|
G------------------------------------------------------|
D------------------------------------------------------|
A--5-5-5-5-5-5-5-5-7-7-7-7-7-7-7-7-x-x-x-x-9-----------|
E--3-3-3-3-3-3-3-3-5-5-5-5-5-5-5-5-x-x-x-x-7-----------|(Let Ring)

OR

e------------------------------------------7-7-7-7-----------|
B------------------------------------------7-7-7-7-----------|
G------------------------------------------7-7-7-7-----------|
D------------------------------------------------------------|
A--5-5-5-5-5-5-5-5-7-7-7-7-7-7-7-7-x-x-x-x-----------x-x-x-x-|
E--3-3-3-3-3-3-3-3-5-5-5-5-5-5-5-5-x-x-x-x-----------x-x-x-x-| (Verse)


Verse-
Bm D A G

Verse 2nd-
(Aku cuma mahukan...)
G A Bm (repeat 3 x)

(Menghadapi Semua)
A G

Chorus:-
B5 G5 D5 A5

Bridge:-
B5 A5 G5 A5

(Solo)
(Upscale Part) - this is the original,u can do triplet for each note at the start of
sounds better to me
e---------------------------------------------------------------------------|
B---------------------------------10-10-12(BU)14(BD)12(PO)10-12--(SU)/12----|
G------------------9-9-11-11-12-12------------------------------------------|
D--9-9-11-11-12-12----------------------------------------------------------|
A---------------------------------------------------------------------------|
E---------------------------------------------------------------------------|

---10-12(BU)14(BD)12(PO)10-12~~~----|
------------------------------------|
------------------------------------|
------------------------------------|
------------------------------------|
------------------------------------|

(4 notes sequence part)
e--14-12-10-(SD)\9-12-10-9----10-9-------9---------|
B--------------------------12------12-11---12-11-9-|
G--------------------------------------------------|
D--------------------------------------------------|
A--------------------------------------------------|
E--------------------------------------------------|

(Unison bend part)
e-----------------------------------------|
B--12--------14--------15--------17-------|
G--14(BU)16--16(BU)18--17(BU)19--19(BU)21-|
D-----------------------------------------|
A-----------------------------------------|
E-----------------------------------------|

Complete 1 solo Revolusi

notation guide:
BU = Bend Up
BD = Bend Down
HO = Hammer On
PO = Pull Off
SU = Slide Up
SD = Slide Down
~~ = Vibrato
Tap to rate this tab
 
# A B C D E F G H I J K L M N O P Q R S T U V W X Y Z