Song name
# A B C D E F G H I J K L M N O P Q R S T U V W X Y Z

Buono - Last Forever tab

Last Forever
by Buono
tabbd by manOutOfTime
Key: F

C (one slow strum)

      F       Am       Dm
never end and last foreverů


---1-0-1------1-0-1------1-0-1---1-0tr1-|
-1-------1--1-------1--1-------1--------|
----------------------------------------|
----------------------------------------|
----------------------------------------|
----------------------------------------|
 F       C          Dm         Bb

---1-0-1------1-0-1------1-0-1---3--1-3-1-|
-1-------1--1-------1--1-------1----------|
------------------------------------------|
------------------------------------------|
------------------------------------------|
------------------------------------------|
 F       C          Dm         Bb

F              C
Itsumo to onaji aoi jitensha
Dm              Bb
itsumo to onaji sakamichi
F                 C             Dm    Bb
sotsugyoushiki ga owareba minna SAYONARA

 Bb    Am   Dm
Asu to kyou wa
Bb    C   Dm
tsunagatteru
Bb       Am    Dm
na no ni doushite
  Gm     Bb
hizuke hitotsu de kawareru no?

          F        C       Dm
Me no mae ni aru tobira wo aketara
 Bb         F      Am         Dm      Gm
atarashii koto hirogaru tsugi no SUTEEJI
           F       C        Dm
demo mou sukoshi kono mama isasete
Am       Bb F     C
ima no kimo chi wasurenai you ni
Bb         Gm    F
shinkokyuu sotto ne

---1-0-1------1-0-1------1-0-1---3--1-3-1-|
-1-------1--1-------1--1-------1----------|
------------------------------------------|
------------------------------------------|
------------------------------------------|
------------------------------------------|
 F       C          Dm         Bb

F              C
Hanashikake nakya saigo no CHANSU
Dm               Bb
mawari ga senaka osu kedo
F              C                 Dm   Bb
nanka ashita mo futsuu ni koko de aesou

Bb Am     Dm
Un mei to ka
Bb C    Dm
eien to ka
Bb    Am  Dm
katareru hodo
 Gm    Bb
ikitenai kedo shinjiteru

         F       C        Dm
Rouka no nioi tsukue no rakugaki
Bb          F      Am      Dm       Gm
sugoshita hibi KIRAKIRA omoide ni naru
         F       C       Dm
nakechai sou ni akarui haru no hi
Am         Bb F  C
tsugi no kisetsu tsuzuiteku kara
Bb       Gm    F
owaranai zutto ne

*Solo*
--------------------------------------------------------------|
--------------------------------------------------------------|
-5\3\2/3/4/5----/7\5/10---/12\10/14--/15\14\10--\5/7\5--------|
-------------------------------------------------------7\3/10-|
--------------------------------------------------------------|
--------------------------------------------------------------|

---------------------------------------------------8-8-8\6\5\3\1-------|
-----------------------------------------------------------------1/3\1-|
-5\3\2/3/4/5----/7\5/10-/12\10/17---\15\14-\10\7\5--5-5----------------|
-----------------------------------------------------------------------|
-----------------------------------------------------------------------|
-----------------------------------------------------------------------|

          F        C       Dm
Me no mae ni aru tobira wo aketara
 Bb         F      Am         Dm      Gm
atarashii koto hirogaru tsugi no SUTEEJI
           F       C        Dm
demo mou sukoshi kono mama isasete
Am       Bb F     C
ima no kimo chi wasurenai you ni
Bb         Gm    F
shinkokyuu sotto ne

---1-0-1------1-0-1------1-0-1------------------------|
-1-------1--1-------1--1-------1/8-6--8/9\8-6-8-6h8p6-|
------------------------------------------------------|
------------------------------------------------------|
------------------------------------------------------|
------------------------------------------------------|
 F       C          Dm         Bb

---1-0-1------1-0-1------1-0-1-1vvvvv-|
-1-------1--1-------1--1--------------|
--------------------------------------|
--------------------------------------|
--------------------------------------|
--------------------------------------|
 F        C         Dm         Bb
Tap to rate this tab
# A B C D E F G H I J K L M N O P Q R S T U V W X Y Z