Song name
# A B C D E F G H I J K L M N O P Q R S T U V W X Y Z

Burn Season - Carry On tab

			     SONG NAME - Band Name
-------------------------------------------------------------------------------
Tabbed by:dmbimpulse
Email:

Tuning:dropc
g1
e|-------------------------------------------------------------------------|
B|-------------------------------------------------------------------------|
G|-------------------------------------------------------------------------|
D|-o--5-3--0--3-5--0--5-3--0--3-5--0--5-3--0--3-5--0--1-8-8-8-8-3-3-3-3----|
A|-o--5-3--0--3-5--0--5-3--0--3-5--0--5-3--0--3-5--0--1-8-8-8-8-3-3-3-3----|
E|-o--5-3--0--3-5--0--5-3--0--3-5--0--5-3--0--3-5--0--1-8-8-8-8-3-3-3-3----|
g2
e|-------------------------------------------------------------------------|
B|-------------------------------------------------------------------------|
G|--12--10--12--10--12--10-------------------------------------------------|
D|-------------------------------------------------------------------------|
A|--10--8---10---8--10--8-------------------------------------------------|
E|-------------------------------------------------------------------------|
g2
e|-------------------------------------------------------------------------|
B|-------------------------------------------------------------------------|
G|-------------------------------------------------------------------------|
D|----12-10-8-7-7h8----12-10-8-7-7h8-----12-10-8-7-7h8---12-10-8-7-7h8-----|
A|-10---------------10-----------------8---------------8-------------------|
E|-------------------------------------------------------------------------|
g1
e|-------------------------------------------------------------------------|
B|-------------------------------------------------------------------------|
G|-------------------------------------------------------------------------|
D|-3-0-3--0-5-3--0--3-5--0--5-3--0--3-5--0--5-3--0--3-5-0-1-8-8-8-8-3-3-3-3|
A|-3-0-3--0-5-3--0--3-5--0--5-3--0--3-5--0--5-3--0--3-5-0-1-8-8-8-8-3-3-3-3|
E|-3-0-3--0-5-3--0--3-5--0--5-3--0--3-5--0--5-3--0--3-5-0-1-8-8-8-8-3-3-3-3|
g2
e|-------------------------------------------------------------------------|
B|-------------------------------------------------------------------------|
G|-------12--10--12--10--12--10--------------------------------------------|
D|-------------------------------------------------------------------------|
A|-------10--8---10--8---10--8---------------------------------------------|
E|-------------------------------------------------------------------------|
g1 carry on
e|-------------------------------------------------------------------------|
B|-------------------------------------------------------------------------|
G|-------------------------------------------------------------------------|
D|-5555-1111--8888-3333----------------------------------------------------|
A|-5555-1111--8888-3333--5times--------------------------------------------|
E|-5555-1111--8888-3333----------------------------------------------------|
Tap to rate this tab
# A B C D E F G H I J K L M N O P Q R S T U V W X Y Z