Song name
# A B C D E F G H I J K L M N O P Q R S T U V W X Y Z

Burzum - A Lost Forgotten Sad Spirit tab

Burzum - A Lost Forgotten Sad Spirit

tremolo picking
e|-------------------|
B|-------------------|
G|-------------------|
D|-4------7---6-7-6--|
A|-2------5---4-5-4--|
E|-------------------|

e|--------------|
B|--------------|
G|--------------|
D|-4-----5---7--|
A|-2-----3---5--|
E|--------------|

e|-----------------------|
B|-----------------------|
G|-----------------------|
D|-5----6----5----8--7---|
A|-3----4----3----6--5---|
E|-----------------------|

normal picking
e|---------------------------------||---------------------------------|
B|---------------------------------||---------------------------------|
G|---------------------------------||---------------------------------|
D|-9-9-9-9-5-5-------------------9-||-9-9-9-9-5-5-----------------9-9-|
A|-7-7-7-7-3-3-4-4-4-4-4-4-5-5-7-7-||-7-7-7-7-3-3-4-4-4-4-3-3-3-3-7-7-|
E|-------------2-2-2-2-2-2-3-3-5---||-------------2-2-2-2-1-1-1-1-----|

e|---------------------------------||---------------------------------|
B|---------------------------------||---------------------------------|
G|---------------------------------||---------------------------------|
D|-9-9-9-9-4-4-3-3-3-3-3-3-7-7-7-2-||-9-9-9-9-4-4-3-3-3-3-3-3-7-6-7-2-|
A|-7-7-7-7-2-2-1-1-1-1-1-1-5-5-5-0-||-7-7-7-7-2-2-1-1-1-1-1-1-5-4-5-0-|
E|---------------------------------||---------------------------------|

e|--------------------------------|
B|--------------------------------|
G|--------------------------------|
D|-5---9---5-------5---9---8---7--|
A|-3---7---3---6---3---7---6---5--|
E|-------------4------------------|

e|-------------------|        |-------------------|
B|-------------------|        |-------------------|
G|-------------------|        |-------------------|
D|-55-5-5-5----------|x3 then |-77-7-7-7-66-6-6-6-|
A|-33-3-3-3-66-6-6-6-|        |-55-5-5-5-44-4-4-4-|
E|----------44-4-4-4-|        |-------------------|
Tap to rate this tab
# A B C D E F G H I J K L M N O P Q R S T U V W X Y Z