Song name
# A B C D E F G H I J K L M N O P Q R S T U V W X Y Z

Bush - Fugitive tab

Fugitive ta by Bush
Tabbed by Nate (Nwl53193)
sounds right to me, but all i can do is the intro cause i have a stiff left index finger.


e----------------------------------------------------------------------------|
b----------------------------------------------------------------------------|
g--------------------------------------4-4-4----4-4---4-4----4-4----4-4-4-4--|
d--4-4----4-4----4-4----4-4----4-4-4-4-4-4-4----4-4---4-4----4-4----4-4-4-4--|
a--4-4----4-4----4-4----4-4----4-4-4-4---------------------------------------|
e----------------------------------------------------------------------------|

e---------------------------------------------------------------------------|
b---------------------------------------------------------------------------|
g----------------------------------------4-4-4-----4-4-----4-4-4-4----------|
d--4-4-4----4-4----4-4----4-4----4-4-4-4-4-4-4-4-4-4-4-4-4-4-4-4-4----------|
a--4-4-4----4-4----4-4----4-4----4-4-4-4-------4-4-----4-4------------------|
e---------------------------------------------------------------------------|

yeah play this a few times till ur satisfied.

Good luck!
Tap to rate this tab
 
# A B C D E F G H I J K L M N O P Q R S T U V W X Y Z