Guitaretab - guitar tabs
Song name
# A B C D E F G H I J K L M N O P Q R S T U V W X Y Z
Home / B / Bush / Bubbles tab

Bush - Bubbles tab

BAND: Bush
SONG: Bubbles
CD: Mallrats Soundtrack

Intro/Verses:

--------------------------|
--------------------------|
-9-9-9-8--8-9-------------|
-9-9-9-8--8-9-8-8-8-8-8-8-|
-7-7-7-6--6-7-8-8-8-8-8-8-|
--------------6-6-6-6-6-6-|

Pre-Chorus: ("Dont twist the face of authority...")

---------|
---------|
-5---7---|
-5---7---|
-3---5---|
---------|

Chorus:

-------|
-------|
-5--4--|
-5--4--|
-3--2--|
-------|

Bridge:

Nigel: (With Slide)

-------------------------|
-8--10/12-\-10--/12-/14--|
-------------------------|
-------------------------|
-------------------------|
-------------------------|

Play these two rhythms together:

Nigel:
[ Tab from: http://www.guitaretab.com/b/bush/2682.html ]
---------------------------|---------------------------|
-/8~~~~~~~~~~-------------\|-7-------------------------|
---------------------------|---------------------------|
---------------------------|---------------------------|
---------------------------|---------------------------|
---------------------------|---------------------------|

Gavin:

---------------------------|---------------------------|
---------------------------|---------------------------|
---------------------------|---------------------------|
-5-5-5-5--5-5-5-5--5-5-5-5-|-4-4-4-4--4-4-4-4--4-4-4-4-|
-5-5-5-5--5-5-5-5--5-5-5-5-|-4-4-4-4--4-4-4-4--4-4-4-4-|
-3-3-3-3--3-3-3-3--3-3-3-3-|-2-2-2-2--2-2-2-2--2-2-2-2-|

After this, Gavin keeps playing the above rhythm while Nigel switches back to this:

-------------------------|
-8--10/12-\-10--/12-/14--|
-------------------------|
-------------------------|
-------------------------|
-------------------------|
                   
====
Related for Bubbles tab
Advertisement will be closed in 10 seconds