Song name
# A B C D E F G H I J K L M N O P Q R S T U V W X Y Z

Busta Rhymes - I Know What You Want tab

----------------------------------------------------------------------------
			     I Know What You Want - Busta Rhymes
----------------------------------------------------------------------------
Tabbed by: flea's trumpet

Tuning: Standard

The song starts off with some Bass lick and then the guitar comes in with a sequence of 
triad chords. The song also includes a little melody guitar part that's played during 
verses.

Chord Progression: Ebm, Abm, Bb, Ebm

e|--11-----11-----10-----11------------------------------------------------|
B|--11-----12-----11-----11------------------------------------------------|
G|--11-----13-----10-----11------------------------------------------------|
D|-------------------------------------------------------------------------|
A|-------------------------------------------------------------------------|
E|-------------------------------------------------------------------------|

Melody line:

e|--14-----13-----11-----13------14------11------13------------------------|
B|-------------------------------------------------------------------------|
G|-------------------------------------------------------------------------|
D|-------------------------------------------------------------------------|
A|-------------------------------------------------------------------------|
E|-------------------------------------------------------------------------|

e|--14-----13-----11-----13------14------13-------11-----------------------|
B|-------------------------------------------------------------------------|
G|-------------------------------------------------------------------------|
D|-------------------------------------------------------------------------|
A|-------------------------------------------------------------------------|
E|-------------------------------------------------------------------------|

| /  slide up
| \  slide down
| h  hammer-on
| p  pull-off
| ~  vibrato
| +  harmonic
| x  Mute note
============================================================================
Tap to rate this tab
# A B C D E F G H I J K L M N O P Q R S T U V W X Y Z