Guitaretab - guitar tabs
Song name
# A B C D E F G H I J K L M N O P Q R S T U V W X Y Z

Busted - Without You tab

Busted C Without You

INTRO
E ----------------------------------------------------------------
B ----------------------------------------------------------------
G --------0---------------0-------------0-----0--------0----------
D -----5-----3---------5-----3-------------------7--------9-----10
A --3---------------5-------------8--8-----8--------8--------8----
E ----------------------------------------------------------------

VERSE
E ----------------------------------------------------------------
B ----------------------------------------------------------------
G --------0---------------0----------------0---------------0------
D -----5-----5---------7-----7---------10-----10-------10-----10--
A --3---------------5---------------8---------------8-------------
E ----------------------------------------------------------------

E ----------------------------------------------------------------
B ----------------------------------------------------------------
G --------0---------------0----------------0---------------0------
D -----5-----5---------7-----7---------10-----10-------10-----10--
A --3---------------5---------------8---------------8-------------
E ----------------------------------------------------------------

E ----------------------------------------------------------------
B ----------------------------------------------------------------
G --------0---------------0----------------0---------------0------
D -----5-----5---------7-----7---------10-----10-------10-----10--
A --3---------------5---------------8---------------8-------------
E ----------------------------------------------------------------

E ----------------------------------------------------------------
B ----------------------------------------------------------------
G --------0---------------0----------------0---------------0------
D -----5-----5---------7-----7---------10-----10-------10-----10--
A --3---------------5---------------8---------------8-------------
E ----------------------------------------------------------------

PRE-CHORUS
E -------------------------------------------------------------------
B --0--0--0--0--0----0--0--0--0--------------------------------------
G --2--2--2--2--2----2--2--2--2------5--5--5--5--5----5--5--5--5-----
D --2--2--2--2--2----2--2--2--2------5--5--5--5--5----5--5--5--5-----
A --0--0--0--0--0----0--0--0--0------5--5--5--5--5----5--5--5--5-----
E -----------------------------------3--3--3--3--3----3--3--3--3-----

E -------------------------------------------------------------------
B -----------------------------------0--0--0--0--0-----0--0--0--0----
G --0--0--0--0--0----0--0-0/0--0----2--2--2--2--2-----2--2--2--2----
D --3--3--3--3--3----3--3-3/5--5----2--2--2--2--2-----2--2--2--2----
A --3--3--3--3--3----3--3-3/5--5----0--0--0--0--0-----0--0--0--0----
E --1--1--1--1--1----1--1--1/3--3------------------------------------
[ Tab from: http://www.guitaretab.com/b/busted/122072.html ]
E -------------------------------------------------------------------
B -------------------------------------------------------------------
G --0--0--0--0--0----0--0-0--0------5--5--5--5--5----5--5-----------
D --3--3--3--3--3----3--3-3--3------5--5--5--5--5----5--5-----------
A --3--3--3--3--3----3--3-3--3------5--5--5--5--5----5--5-----------
E --1--1--1--1--1----1--1-1--1------3--3--3--3--3----3--3-----------

E ---------------------------------------------------
B ---------------------------------------------------
G --5--5--5--5--5---5--5--5--5-------0--0--0--0--0--0
D --5--5--5--5--5---5--5--5--5-------3--3--3--3--3--3
A --5--5--5--5--5---5--5--5--5-------3--3--3--3--3--3
E --3--3--3--3--3---3--3--3--3-------1--1--1--1--1--1

E ---------------------------------------------------
B ---------------------------------------------------
G --0--0--0--0--0--0--0--0--0--0--0--0--0-0--0------
D --3--3--3--3--3--3--3--3--3--3--3--3--3-3--3------
A --3--3--3--3--3--3--3--3--3--3--3--3--3--3--3------
E --1--1--1--1--1--1--1--1--1--1--1--1--1--1--1------

CHORUS
E --------------------------------------------------------------------
B --------------------------------------------------------------------
G --5--5--5--5--5--5--5--5--5--5--5--0--0--0--0--0--0--0--0--0--0--0--
D --5--5--5--5--5--5--5--5--5--5--5--3--3--3--3--3--3--3--3--3--3--3--
A --3--3--3--3--3--5--5--5--5--5--5--3--3--3--3--3--3--3--3--3--3--3--
E -----------------3--3--3--3--3--3--1--1--1--1--1--1--1--1--1--1--1--

E --------------------------------------------------------------------
B --------------------------------------------------------------------
G --5--5--5--5--5--5--5--5--5--5--5--0--0--0--0--0--0--0--0--0--0--0--
D --5--5--5--5--5--5--5--5--5--5--5--3--3--3--3--3--3--3--3--3--3--3--
A --3--3--3--3--3--5--5--5--5--5--5--3--3--3--3--3--3--3--3--3--3--3--
E -----------------3--3--3--3--3--3--1--1--1--1--1--1--1--1--1--1--1--

E --0--0--0--0--0---3--3--3--3--3--3----------------------------------
B --1--1--1--1--1---3--3--3--3--3--3----------------------------------
G --0--0--0--0--0---0--0--0--0--0--0--0--0--0--0--0---0--0--0--0--0--0
D --2--2--2--2--2---0--0--0--0--0--0--3--3--3--3--3---3--3--3--3--3--3
A --0--0--0--0--0---2--2--2--2--2--2--3--3--3--3--3---3--3--3--3--3--3
E ------------------3--3--3--3--3--3--1--1--1--1--1---1--1--1--1--1--1

OUTRO
E -----------------------------------------------------------
B -----3------------------------5-------3--------------3-----
G --5------------------------5----------------------5--------
D --5------------------------5----------------------5--------
A --3------------------------3----------------------3--------
E -----------------------------------------------------------

E -----------------------------------------------------------
B --------------5------------3-------------3-----------------
G --------------5-----------------------5--------------------
D --------------5-----------------------5--------------------
A --------------3-----------------------3--------------------
E --------------------------------------------------3--------

E -----------------------------------------------------------
B -----0------------------------3----------3-----------------
G --0------------------------5----------5-----------0--------
D --3------------------------5----------5-----------3--------
A --3------------------------3----------3-----------3--------
E --1-----------------------------------3-----------1--------

this is the original version of the great song 'Without You' from the awesome band 
:)
Related for Without You tab