Song name
# A B C D E F G H I J K L M N O P Q R S T U V W X Y Z

Busted - That Thing You Do tab

Harmonized!!!! contact me  at Son_of_dork_dork@hotmail.co.uk

Guitar 1
E[--------------------------------------|-----------------------------------|
B[-12--14-14--15-14-12-----------12-----|-12--14-14--15-14-12----------12---|
G[----------------------14-13-14----14--|---------------------14-13-14----14|
D[--------------------------------------|-----------------------------------|
A[--------------------------------------|-----------------------------------|
E[--------------------------------------|-----------------------------------|

E[------------------------12------------|
B[-12--14-14--15-14-12-14----15---------|
G[--------------------------------------|
D[--------------------------------------|
A[--------------------------------------|
E[--------------------------------------|


Guitar 2
E[---------------------------------|----------------------------------|
B[--9--10-10--12-10-9---------9----|--9--10-10--12-10-9---------9-----|
G[--------------------11-9-11---11-|--------------------11-9-11---11--|
D[---------------------------------|----------------------------------|
A[---------------------------------|----------------------------------|
E[---------------------------------|----------------------------------|

E[---------------------------------|
B[-9--10-10-12-10-9-10--17---------|
G[---------------------------------|
D[---------------------------------|
A[---------------------------------|
E[---------------------------------|

ENJOY! SOUNDS GREAT ON OVERDRIVE!
Tap to rate this tab
 
# A B C D E F G H I J K L M N O P Q R S T U V W X Y Z