Song name
# A B C D E F G H I J K L M N O P Q R S T U V W X Y Z

Butterfingers - Jesus I Was Evil tab

----------------------------------------------------------------------------
			     Jesus I was Evil - Butterfingers
----------------------------------------------------------------------------
Tabbed by: AlexHill
Email: 

Tuning: e B G D A E

e|-------------------------------------------------------------------------|
B|-------------------------------------------------------------------------|
G|---4-4-----4---------------2-4-------------------------------------------|
D|---4-4-----4-2-2-----2-4-4-2-4-------------------------------------------|
A|---2-2-----2-2-2-----2-4-4-0-2-------------------------------------------|
E|-------------0-0-----0-2-2-----------------------------------------------|
Tap to rate this tab
# A B C D E F G H I J K L M N O P Q R S T U V W X Y Z