Song name
# A B C D E F G H I J K L M N O P Q R S T U V W X Y Z

Butterfingers - Popcorn tab

tabbed by !THE SINET!

standard tuning


e|------7-5-7-------||
B|------------7-----|| 
G|--------------7-4-||
D|------------------|| x2
A|------------------||
E|------------------||


e|--7-10-9-10-10-10-9-7-9-9-9-7-5-7-7-7-7-||
B|----------------------------------------||
G|----------------------------------------||
D|----------------------------------------||
A|----------------------------------------||
E|----------------------------------------||

and thats it...
simples
Tap to rate this tab
 
# A B C D E F G H I J K L M N O P Q R S T U V W X Y Z