Guitaretab - guitar tabs
Song name
# A B C D E F G H I J K L M N O P Q R S T U V W X Y Z

Butterfingers - Hook Up tab

E|-----------------------3-|
B|-3-5-3-5-3-5-7-6-3-5-3---|
G|-------------------------|   2x
D|-------------------------|
A|-------------------------|
D|-------------------------|

[ Tab from: http://www.guitaretab.com/b/butterfingers/73824.html ]
E|-------------------------|
B|-------------------------|
G|-------------------------|
D|-------------------------|
A|-3-5-3-5-3-5-7-6-3-5-3/7-|
D|-3-5-3-5-3-5-7-6-3-5-3/7-|


/= slide down   H= hammer on
\= slide up     P= pull off
x= palm mute    += harmonic

tabbed by sam sykes email eatsnacksnacks@hotmail.com
Related for Hook Up tab
×
Hook Up