Song name
# A B C D E F G H I J K L M N O P Q R S T U V W X Y Z

Buzzcocks - Ever Fallen In Love tab

“Ever Fallen In Love?” by The Buzzcocks

Intro/Verses: 

Lead/Rhythm:
e|----------------------------------------------------------------------|
B|----------------------------------------------------------------------|
G|---6-6-6-6-6-6-6-6-6-6-6-6-\4-4---------------------------------------| x2
D|---6-6-6-6-6-6-6-6-6-6-6-6-\4-4---------------------------------------|
A|---4-4-4-4-4-4-4-4-4-4-4-4-\2-2---------------------------------------|
E|----------------------------------------------------------------------|


Lead guitar: (Let the notes rings for a bit.)
e|----------------------------------------------------------------------|
B|------------5-5p7-5-(5)-----------------------------------------------|
G|--------6p4-(4)-------------------------------------------------------|
D|---6-7----------------------------------------------------------------|
A|----------------------------------------------------------------------|
E|----------------------------------------------------------------------|
Rhythm guitar:                                                            x2
e|----------------------------------------------------------------------|
B|----------------------------------------------------------------------|
G|----------------------------------------------------------------------|
D|---2-2--2-2-2--2--2--2-2-2--------------------------------------------|
A|---2-2--2-2-2--2--2--2-2-2--------------------------------------------|
E|---0-0--0-0-0--0--0--0-0-0--------------------------------------------|

Verses: x2

Chorus: 

Lead/Rhythm:
e|----------------------------------------------------------------------|
B|----------------------------------------------------------------------|
G|---6-6-6-6-6-6-6-6-\4-4-4-4-4-4-4-4-----------------------------------| x2
D|---6-6-6-6-6-6-6-6-\4-4-4-4-4-4-4-4-----------------------------------|
A|---4-4-4-4-4-4-4-4-\2-2-2-2-2-2-2-2-----------------------------------|
E|----------------------------------------------------------------------|
     Ever fallen in love with…

Lead/Rhythm: 

 (This is how I play this part, 
  the first part of it is not really 
  like the one you hear in the song, 
  but I like how it sounds.)
e|----------------------------------------------------------------------|
B|----------------------------------------------------------------------|
G|---7--7--7-\6-\4------------------------9---------9-------------------|
D|---7--7--7-\6-\4-7--7-7-x-x--4--4--/9-9-9-9-x-9-9-9-9-x---------------|
A|---5--5--5-\4-\2-7--7-7-x-x--4--4--/9-9-7-9-x-9-9-7-9-x---------------|
E|-----------------5--5-5-x-x--2--2--/7-7---7-x-7-7---7-x---------------|
     
Verses x 2

Chorus

Verses x2 

Chorus x2

Bridge:
Lead/Rhythm:
e|----------------------------------------------------------------------|
B|----------------------------------------------------------------------|
G|----------------------------------------------------------------------|
D|----------------------------------------------------------------------|
A|----------------------------------------------------------------------|
E|----------------------------------------------------------------------|
Rhythm guitar: 
    |   4   |   4   |   4   |   4   |   4   |   4   |   4   |   4   |
e|----------------------------------------------------------------------|
B|----------------------------------------------------------------------|
G|---9-9-9-9-9-9-9-9-9-9-9-9-9-9-9-9-9-9-9-9-9-9-9-9-9-9-9-9-9-9-9-9----|
D|---9-9-9-9-9-9-9-9-9-9-9-9-9-9-9-9-9-9-9-9-9-9-9-9-9-9-9-9-9-9-9-9----| 
A|---7-7-7-7-7-7-7-7-7-7-7-7-7-7-7-7-7-7-7-7-7-7-7-7-7-7-7-7-7-7-7-7----|
E|----------------------------------------------------------------------|
PM:  . . . . . . . . . . . . . . . . . . . . . . . . . . . . . . . . 

Lead guitar:
e|----------------------------------------------------------------------|
B|----------------------------------------------------------------------|
G|--------6p4-(4)-------------------------6p4-(4)-----------------------|
D|---6-------------------------------6----------------------------------|
A|-----7-------------------------------7--------------------------------|
E|----------------------------------------------------------------------|
Rhythm guitar: 
    |   4   |   4   |   4   |   4   |   4   |   4   |   4   |   4   |
e|----------------------------------------------------------------------|
B|----------------------------------------------------------------------|
G|---9-9-9-9-9-9-9-9-9-9-9-9-9-9-9-9-9-9-9-9-9-9-9-9-9-9-9-9-9-9-9-9----|
D|---9-9-9-9-9-9-9-9-9-9-9-9-9-9-9-9-9-9-9-9-9-9-9-9-9-9-9-9-9-9-9-9----| 
A|---7-7-7-7-7-7-7-7-7-7-7-7-7-7-7-7-7-7-7-7-7-7-7-7-7-7-7-7-7-7-7-7----|
E|----------------------------------------------------------------------|
PM:  . . . . . . . . . . . . . . . . . . . . . . . . . . . . . . . . 

Lead guitar: (Two lead guitars play here at the same time.)
e|----------------------------------------------------------------------|
B|----------------------------------------------------------------------|
G|--------6p4-(4)-------------------------6p4-(4)-----------------------|
D|---6-------------------------------6----------------------------------|
A|-----7-------------------------------7--------------------------------|
E|----------------------------------------------------------------------|
Rhythm guitar: 
    |   4   |   4   |   4   |   4   |   4   |   4   |   4   |   4   |
e|----------------------------------------------------------------------|
B|----------------------------------------------------------------------|
G|---9-9-9-9-9-9-9-9-9-9-9-9-9-9-9-9-9-9-9-9-9-9-9-9-9-9-9-9-9-9-9-9----|
D|---9-9-9-9-9-9-9-9-9-9-9-9-9-9-9-9-9-9-9-9-9-9-9-9-9-9-9-9-9-9-9-9----| 
A|---7-7-7-7-7-7-7-7-7-7-7-7-7-7-7-7-7-7-7-7-7-7-7-7-7-7-7-7-7-7-7-7----|
E|----------------------------------------------------------------------|
PM:  . . . . . . . . . . . . . . . . . . . . . . . . . . . . . . . . 

Chorus 

Outro:

Lead/Rhythm:

(As soon as the final chorus ends, play this last section.)
e|----------------------------------------------------------------------|
B|----------------------------------------------------------------------|
G|-------7---------7----------------------------------------------------|
D|---7-7-7-7-x-7-7-7-7-x-4-4-4-4-4-4-4-4-6-6-6-6-6-6-6-6----------------|
A|---7-7-5-7-x-7-7-5-7-x-4-4-4-4-4-4-4-4-6-6-6-6-6-6-6-6----------------|
E|---5-5---5-x-5-5---5-x-2-2-2-2-2-2-2-2-4-4-4-4-4-4-4-4----------------|

(Let the last E chord ring and you’re done.)
e|---0------------------------------------------------------------------|
B|---0------------------------------------------------------------------|
G|---1------------------------------------------------------------------|
D|---2------------------------------------------------------------------|
A|---2------------------------------------------------------------------|
E|---0------------------------------------------------------------------|

| /  slide up
| \  slide down
| h  hammer-on
| p  pull-off
| x  Mute note
Tap to rate this tab
# A B C D E F G H I J K L M N O P Q R S T U V W X Y Z