Song name
# A B C D E F G H I J K L M N O P Q R S T U V W X Y Z

Byrds - Oh Susannah tab

-------------------------------------------------------------------------------
			     Oh! Susannah - The Byrds
-------------------------------------------------------------------------------

Intro
e|---------------------------------------------------------------------------|
B|--------1-1--3-1------------------------1-1--3-1---------------------------|
G|----0-2----------2---0-2-2-0---0----0-2-----------2---0-2-2-0-0------------|
D|--3----------------3---------3----3-----------------3-----------3----------|
A|---------------------------------------------------------------------------|
E|---------------------------------------------------------------------------|

e|---------------------------------------------------------------------------|
B|-------3-3--3-1-1--------------1-1--3-1------------------------------------|
G|---3-3------------2---0----0-2----------2----0-2-2-0-0---------------------|
D|--------------------3----3----------------3------------3-------------------|
A|---------------------------------------------------------------------------|
E|---------------------------------------------------------------------------|

         F          Am           Dm           G
Well I come from Alabama with a banjo on my knee
         F          Am        Dm     G      F
And I'm going to Louisiana Susannah for to see
Bb    Dm          F               C
Oh Susannah now don't you cry for me
         F           Am           Dm    G     F
Cause I come from Alabama with a banjo on my knee

Well it rained so hard the night I left, the weather it was dry
And it was so hot I froze to death, Susannah don't you cry
Oh Susannah now don't you cry for me
Cause I come from Alabama with a banjo on my knee 
Tap to rate this tab
 
# A B C D E F G H I J K L M N O P Q R S T U V W X Y Z