Song name
# A B C D E F G H I J K L M N O P Q R S T U V W X Y Z

C418 - Minecraft tab

The original music of the 10 minute daytime in Minecraft.
Listen here: http://c418.bandcamp.com/album/minecraft-volume-alpha
Let the notes ring...
This is my first tab, so please keep it positive.

e|6----4-------2------4---6----4--------------------|
B|---------4-----------------------4-----2----------|
G|--------------------------------------------------|
D|--------------------------------------------------|
A|--------------------------------------------------| (x4)
E|--------------------------------------------------|

e|6---------------2-----4----6----4----6-----9------|
B|-----2----4---------------------------------------|
G|--------------------------------------------------|
D|--------------------------------------------------|
A|--------------------------------------------------|
E|--------------------------------------------------|

e|6-----9--11-----9-----6----4-----6-----4-----2---|
B|--------------------------------------------------|
G|--------------------------------------------------|
D|--------------------------------------------------|
A|--------------------------------------------------|
E|--------------------------------------------------|

e|-----------2----4---6---2-------------------------|
B|-2----4---------------------2---------------------|
G|--------------------------------------------------|
D|--------------------------------------------------|
A|--------------------------------------------------|
E|--------------------------------------------------|


e|6----4-------2------4---6----4--------------------|
B|---------4-----------------------4-----2----------|
G|--------------------------------------------------|
D|--------------------------------------------------|
A|--------------------------------------------------| (x21 and fade around the last 5)
E|--------------------------------------------------|

Please rate and comment. PM me if there are any problems.
http://c418.tumblr.com/
Tap to rate this tab
 
# A B C D E F G H I J K L M N O P Q R S T U V W X Y Z